ISO-10303-21;
HEADER;
FILE_DESCRIPTION (( 'STEP AP203' ),
    '1' );
FILE_NAME ('334941.step',
    '2021-11-15T08:05:54',
    ( '' ),
    ( '' ),
    'SwSTEP 2.0',
    'SolidWorks 2019',
    '' );
FILE_SCHEMA (( 'CONFIG_CONTROL_DESIGN' ));
ENDSEC;

DATA;
#1 = ORIENTED_EDGE ( 'NONE', *, *, #230, .T. ) ;
#2 = CARTESIAN_POINT ( 'NONE',  ( 0.2181483474218646745, 0.0000000000000000000, 1.217638090205026558 ) ) ;
#3 = CARTESIAN_POINT ( 'NONE',  ( 1.312796983405018394E-13, 1.999999999999994893, 37.60000000000000853 ) ) ;
#4 = FACE_OUTER_BOUND ( 'NONE', #182, .T. ) ;
#5 = CLOSED_SHELL ( 'NONE', ( #207, #159, #114, #121, #151, #175 ) ) ;
#6 = COORDINATED_UNIVERSAL_TIME_OFFSET ( 1, 0, .AHEAD. ) ;
#7 = APPROVAL_ROLE ( '' ) ;
#8 = FACE_OUTER_BOUND ( 'NONE', #204, .T. ) ;
#9 = SECURITY_CLASSIFICATION_LEVEL ( 'unclassified' ) ;
#10 = AXIS2_PLACEMENT_3D ( 'NONE', #173, #206, #120 ) ;
#11 = FACE_OUTER_BOUND ( 'NONE', #132, .T. ) ;
#12 = DIRECTION ( 'NONE',  ( 3.491481338843133355E-15, -0.0000000000000000000, 1.000000000000000000 ) ) ;
#13 = EDGE_LOOP ( 'NONE', ( #171 ) ) ;
#14 = CARTESIAN_POINT ( 'NONE',  ( -4.275831445896957731E-31, 1.499759782661857608E-32, -1.224646799147353207E-16 ) ) ;
#15 = AXIS2_PLACEMENT_3D ( 'NONE', #141, #57, #40 ) ;
#16 = CARTESIAN_POINT ( 'NONE',  ( 0.1500000000000032696, 0.0000000000000000000, 0.6999999999999987343 ) ) ;
#17 = LOCAL_TIME ( 9, 5, 54.00000000000000000, #106 ) ;
#18 = APPLICATION_PROTOCOL_DEFINITION ( 'international standard', 'config_control_design', 1994, #29 ) ;
#19 = ORIENTED_EDGE ( 'NONE', *, *, #87, .F. ) ;
#20 = APPROVAL ( #144, 'UNSPECIFIED' ) ;
#21 = PLANE ( 'NONE',  #119 ) ;
#22 =( NAMED_UNIT ( * ) SI_UNIT ( $, .STERADIAN. ) SOLID_ANGLE_UNIT ( ) );
#23 = APPROVAL_STATUS ( 'not_yet_approved' ) ;
#24 = DATE_TIME_ROLE ( 'creation_date' ) ;
#25 = CALENDAR_DATE ( 2021, 15, 11 ) ;
#26 = PERSON ( 'UNSPECIFIED', 'UNSPECIFIED', 'UNSPECIFIED', ('UNSPECIFIED'), ('UNSPECIFIED'), ('UNSPECIFIED') ) ;
#27 = PERSON_AND_ORGANIZATION_ROLE ( 'creator' ) ;
#28 = ADVANCED_FACE ( 'NONE', ( #169 ), #201, .T. ) ;
#29 = APPLICATION_CONTEXT ( 'configuration controlled 3d designs of mechanical parts and assemblies' ) ;
#30 = CARTESIAN_POINT ( 'NONE',  ( 2.444036937190190588E-15, 0.0000000000000000000, 0.6999999999999992895 ) ) ;
#31 = ORIENTED_EDGE ( 'NONE', *, *, #225, .F. ) ;
#32 = EDGE_CURVE ( 'NONE', #209, #209, #222, .T. ) ;
#33 = EDGE_LOOP ( 'NONE', ( #184 ) ) ;
#34 = AXIS2_PLACEMENT_3D ( 'NONE', #111, #108, #92 ) ;
#35 = CC_DESIGN_APPROVAL ( #39, ( #110 ) ) ;
#36 = FACE_OUTER_BOUND ( 'NONE', #13, .T. ) ;
#37 =( NAMED_UNIT ( * ) PLANE_ANGLE_UNIT ( ) SI_UNIT ( $, .RADIAN. ) );
#38 = FACE_BOUND ( 'NONE', #221, .T. ) ;
#39 = APPROVAL ( #23, 'UNSPECIFIED' ) ;
#40 = DIRECTION ( 'NONE',  ( 1.000000000000000000, 0.0000000000000000000, -3.469446951953614189E-15 ) ) ;
#41 = LOCAL_TIME ( 9, 5, 54.00000000000000000, #192 ) ;
#42 = VERTEX_POINT ( 'NONE', #123 ) ;
#43 = APPROVAL_ROLE ( '' ) ;
#44 = PERSON_AND_ORGANIZATION_ROLE ( 'design_owner' ) ;
#45 = CALENDAR_DATE ( 2021, 15, 11 ) ;
#46 = FACE_OUTER_BOUND ( 'NONE', #52, .T. ) ;
#47 = PERSON_AND_ORGANIZATION_ROLE ( 'creator' ) ;
#48 = CALENDAR_DATE ( 2021, 15, 11 ) ;
#49 = CARTESIAN_POINT ( 'NONE',  ( 2.444036937190190588E-15, 0.0000000000000000000, 0.6999999999999992895 ) ) ;
#50 = DIRECTION ( 'NONE',  ( 3.491481338843133355E-15, -1.224646799147353207E-16, 1.000000000000000000 ) ) ;
#51 = CARTESIAN_POINT ( 'NONE',  ( 1.326762908760390675E-13, -8.377713426430119900E-31, 38.00000000000000711 ) ) ;
#52 = EDGE_LOOP ( 'NONE', ( #157 ) ) ;
#53 = ORIENTED_EDGE ( 'NONE', *, *, #135, .F. ) ;
#54 = CARTESIAN_POINT ( 'NONE',  ( 1.326762908760390675E-13, -4.653657836759942730E-15, 38.00000000000000711 ) ) ;
#55 = CIRCLE ( 'NONE', #88, 0.1500000000000008271 ) ;
#56 = CIRCLE ( 'NONE', #237, 0.1500000000000008271 ) ;
#57 = DIRECTION ( 'NONE',  ( 3.491481338843133355E-15, -0.0000000000000000000, 1.000000000000000000 ) ) ;
#58 = ADVANCED_FACE ( 'NONE', ( #231, #65 ), #214, .T. ) ;
#59 = FACE_BOUND ( 'NONE', #202, .T. ) ;
#60 = VERTEX_POINT ( 'NONE', #2 ) ;
#61 = APPROVAL_DATE_TIME ( #178, #20 ) ;
#62 = PRODUCT_DEFINITION ( 'UNKNOWN', '', #146, #196 ) ;
#63 = APPLICATION_PROTOCOL_DEFINITION ( 'international standard', 'config_control_design', 1994, #218 ) ;
#64 = COORDINATED_UNIVERSAL_TIME_OFFSET ( 1, 0, .AHEAD. ) ;
#65 = FACE_OUTER_BOUND ( 'NONE', #140, .T. ) ;
#66 = APPROVAL_DATE_TIME ( #103, #39 ) ;
#67 = UNCERTAINTY_MEASURE_WITH_UNIT (LENGTH_MEASURE( 1.000000000000000082E-05 ), #139, 'distance_accuracy_value', 'NONE');
#68 = PERSON_AND_ORGANIZATION ( #26, #130 ) ;
#69 = DIRECTION ( 'NONE',  ( -4.275831445896958607E-31, -1.000000000000000000, -1.224646799147353207E-16 ) ) ;
#70 = DIRECTION ( 'NONE',  ( 1.000000000000000000, 0.0000000000000000000, -3.491481338843134539E-15 ) ) ;
#71 = ADVANCED_FACE ( 'NONE', ( #46 ), #195, .T. ) ;
#72 = LOCAL_TIME ( 9, 5, 54.00000000000000000, #80 ) ;
#73 = CARTESIAN_POINT ( 'NONE',  ( 0.0000000000000000000, 0.0000000000000000000, 0.0000000000000000000 ) ) ;
#74 = DIRECTION ( 'NONE',  ( 1.000000000000000000, 0.0000000000000000000, -3.469446951953614189E-15 ) ) ;
#75 = CARTESIAN_POINT ( 'NONE',  ( 2.000000000000027534, 0.0000000000000000000, 7.867598989177382762 ) ) ;
#76 = AXIS2_PLACEMENT_3D ( 'NONE', #54, #226, #99 ) ;
#77 = CARTESIAN_POINT ( 'NONE',  ( 2.444036937190190193E-15, 1.499759782661857608E-32, 0.6999999999999991784 ) ) ;
#78 = AXIS2_PLACEMENT_3D ( 'NONE', #14, #131, #154 ) ;
#79 = PERSON_AND_ORGANIZATION ( #26, #130 ) ;
#80 = COORDINATED_UNIVERSAL_TIME_OFFSET ( 1, 0, .AHEAD. ) ;
#81 = DIRECTION ( 'NONE',  ( 3.491481338843133355E-15, -0.0000000000000000000, 1.000000000000000000 ) ) ;
#82 = PRODUCT_DEFINITION_SHAPE ( 'NONE', 'NONE',  #62 ) ;
#83 = CC_DESIGN_PERSON_AND_ORGANIZATION_ASSIGNMENT ( #147, #27, ( #62 ) ) ;
#84 = PERSON_AND_ORGANIZATION ( #26, #130 ) ;
#85 = CC_DESIGN_APPROVAL ( #240, ( #146 ) ) ;
#86 = DIRECTION ( 'NONE',  ( 1.000000000000000000, 0.0000000000000000000, 0.0000000000000000000 ) ) ;
#87 = EDGE_CURVE ( 'NONE', #60, #60, #149, .T. ) ;
#88 = AXIS2_PLACEMENT_3D ( 'NONE', #238, #241, #70 ) ;
#89 = CC_DESIGN_APPROVAL ( #20, ( #62 ) ) ;
#90 = ADVANCED_BREP_SHAPE_REPRESENTATION ( '334941', ( #224, #148, #133 ), #232 ) ;
#91 = FACE_OUTER_BOUND ( 'NONE', #137, .T. ) ;
#92 = DIRECTION ( 'NONE',  ( 1.000000000000000000, 0.0000000000000000000, -3.976017917344470795E-15 ) ) ;
#93 = ORIENTED_EDGE ( 'NONE', *, *, #87, .T. ) ;
#94 = AXIS2_PLACEMENT_3D ( 'NONE', #49, #81, #183 ) ;
#95 = CONICAL_SURFACE ( 'NONE', #10, 1.999999999999999556, 0.7853981633974485010 ) ;
#96 = VERTEX_POINT ( 'NONE', #3 ) ;
#97 = CARTESIAN_POINT ( 'NONE',  ( 2.444036937190190588E-15, 0.0000000000000000000, 0.6999999999999992895 ) ) ;
#98 = EDGE_LOOP ( 'NONE', ( #239 ) ) ;
#99 = DIRECTION ( 'NONE',  ( 0.0000000000000000000, 1.000000000000000000, 0.0000000000000000000 ) ) ;
#100 = AXIS2_PLACEMENT_3D ( 'NONE', #170, #223, #74 ) ;
#101 = DIRECTION ( 'NONE',  ( -3.491481338843133355E-15, 1.224646799147353207E-16, -1.000000000000000000 ) ) ;
#102 = PRODUCT ( '334941', '334941', '', ( #194 ) ) ;
#103 = DATE_AND_TIME ( #164, #41 ) ;
#104 = PERSON_AND_ORGANIZATION_ROLE ( 'classification_officer' ) ;
#105 = AXIS2_PLACEMENT_3D ( 'NONE', #188, #101, #156 ) ;
#106 = COORDINATED_UNIVERSAL_TIME_OFFSET ( 1, 0, .AHEAD. ) ;
#107 = DATE_AND_TIME ( #48, #122 ) ;
#108 = DIRECTION ( 'NONE',  ( 3.491481338843133355E-15, -0.0000000000000000000, 1.000000000000000000 ) ) ;
#109 = DATE_AND_TIME ( #25, #72 ) ;
#110 = SECURITY_CLASSIFICATION ( '', '', #9 ) ;
#111 = CARTESIAN_POINT ( 'NONE',  ( 4.251360669415445785E-15, 0.0000000000000000000, 1.217638090205027446 ) ) ;
#112 = DIRECTION ( 'NONE',  ( 1.000000000000000000, 0.0000000000000000000, -3.491481338843133355E-15 ) ) ;
#113 = EDGE_LOOP ( 'NONE', ( #53 ) ) ;
#114 = ADVANCED_FACE ( 'NONE', ( #8 ), #152, .F. ) ;
#115 = CARTESIAN_POINT ( 'NONE',  ( 2.444036937190190193E-15, 1.499759782661857608E-32, 0.6999999999999991784 ) ) ;
#116 = ORIENTED_EDGE ( 'NONE', *, *, #243, .F. ) ;
#117 = EDGE_LOOP ( 'NONE', ( #31 ) ) ;
#118 = AXIS2_PLACEMENT_3D ( 'NONE', #73, #12, #128 ) ;
#119 = AXIS2_PLACEMENT_3D ( 'NONE', #77, #158, #172 ) ;
#120 = DIRECTION ( 'NONE',  ( 0.0000000000000000000, 1.000000000000000000, 0.0000000000000000000 ) ) ;
#121 = ADVANCED_FACE ( 'NONE', ( #11, #91 ), #138, .F. ) ;
#122 = LOCAL_TIME ( 9, 5, 54.00000000000000000, #6 ) ;
#123 = CARTESIAN_POINT ( 'NONE',  ( 0.1500000000000008271, 0.0000000000000000000, -1.013580920485414343E-15 ) ) ;
#124 = EDGE_CURVE ( 'NONE', #42, #42, #55, .T. ) ;
#125 = VERTEX_POINT ( 'NONE', #75 ) ;
#126 = APPROVAL_DATE_TIME ( #109, #240 ) ;
#127 = APPROVAL_PERSON_ORGANIZATION ( #84, #240, #177 ) ;
#128 = DIRECTION ( 'NONE',  ( 1.000000000000000000, 0.0000000000000000000, -3.491481338843133750E-15 ) ) ;
#129 = LOCAL_TIME ( 9, 5, 54.00000000000000000, #64 ) ;
#130 = ORGANIZATION ( 'UNSPECIFIED', 'UNSPECIFIED', '' ) ;
#131 = DIRECTION ( 'NONE',  ( -3.491481338843133355E-15, 1.224646799147353207E-16, -1.000000000000000000 ) ) ;
#132 = EDGE_LOOP ( 'NONE', ( #187 ) ) ;
#133 = AXIS2_PLACEMENT_3D ( 'NONE', #229, #163, #86 ) ;
#134 = ORIENTED_EDGE ( 'NONE', *, *, #230, .F. ) ;
#135 = EDGE_CURVE ( 'NONE', #96, #96, #197, .T. ) ;
#136 = CARTESIAN_POINT ( 'NONE',  ( 0.1500000000000032696, 0.0000000000000000000, 0.6999999999999987343 ) ) ;
#137 = EDGE_LOOP ( 'NONE', ( #19 ) ) ;
#138 = TOROIDAL_SURFACE ( 'NONE', #165, 2.149999999999999023, 1.999999999999998668 ) ;
#139 =( LENGTH_UNIT ( ) NAMED_UNIT ( * ) SI_UNIT ( .MILLI., .METRE. ) );
#140 = EDGE_LOOP ( 'NONE', ( #116 ) ) ;
#141 = CARTESIAN_POINT ( 'NONE',  ( 2.746957505221395495E-14, 0.0000000000000000000, 7.867598989177388979 ) ) ;
#142 = DIRECTION ( 'NONE',  ( 1.000000000000000000, 0.0000000000000000000, -3.614007241618327866E-15 ) ) ;
#143 = DIRECTION ( 'NONE',  ( 3.491481338843133355E-15, -0.0000000000000000000, 1.000000000000000000 ) ) ;
#144 = APPROVAL_STATUS ( 'not_yet_approved' ) ;
#145 = CALENDAR_DATE ( 2021, 15, 11 ) ;
#146 = PRODUCT_DEFINITION_FORMATION_WITH_SPECIFIED_SOURCE ( 'ANY', '', #102, .NOT_KNOWN. ) ;
#147 = PERSON_AND_ORGANIZATION ( #26, #130 ) ;
#148 = MANIFOLD_SOLID_BREP ( 'Corps-Déplacer/Copier1[2]', #179 ) ;
#149 = CIRCLE ( 'NONE', #34, 0.2181483474218604279 ) ;
#150 = PRODUCT_RELATED_PRODUCT_CATEGORY ( 'detail', '', ( #102 ) ) ;
#151 = ADVANCED_FACE ( 'NONE', ( #186, #59 ), #200, .T. ) ;
#152 = PLANE ( 'NONE',  #236 ) ;
#153 = APPROVAL_PERSON_ORGANIZATION ( #191, #39, #7 ) ;
#154 = DIRECTION ( 'NONE',  ( 4.275831445896958607E-31, 1.000000000000000000, 1.224646799147353207E-16 ) ) ;
#155 = FACE_OUTER_BOUND ( 'NONE', #113, .T. ) ;
#156 = DIRECTION ( 'NONE',  ( 0.0000000000000000000, 1.000000000000000000, 0.0000000000000000000 ) ) ;
#157 = ORIENTED_EDGE ( 'NONE', *, *, #124, .F. ) ;
#158 = DIRECTION ( 'NONE',  ( 3.491481338843133355E-15, -1.224646799147353207E-16, 1.000000000000000000 ) ) ;
#159 = ADVANCED_FACE ( 'NONE', ( #38, #155 ), #95, .T. ) ;
#160 = DIRECTION ( 'NONE',  ( 4.275831445896958607E-31, 1.000000000000000000, 1.224646799147353207E-16 ) ) ;
#161 = AXIS2_PLACEMENT_3D ( 'NONE', #208, #211, #160 ) ;
#162 = PERSON_AND_ORGANIZATION_ROLE ( 'design_supplier' ) ;
#163 = DIRECTION ( 'NONE',  ( 0.0000000000000000000, 0.0000000000000000000, 1.000000000000000000 ) ) ;
#164 = CALENDAR_DATE ( 2021, 15, 11 ) ;
#165 = AXIS2_PLACEMENT_3D ( 'NONE', #30, #168, #112 ) ;
#166 = CIRCLE ( 'NONE', #15, 2.000000000000000000 ) ;
#167 = EDGE_LOOP ( 'NONE', ( #199 ) ) ;
#168 = DIRECTION ( 'NONE',  ( 3.491481338843133355E-15, -0.0000000000000000000, 1.000000000000000000 ) ) ;
#169 = FACE_OUTER_BOUND ( 'NONE', #167, .T. ) ;
#170 = CARTESIAN_POINT ( 'NONE',  ( 5.353034655269701686E-14, 0.0000000000000000000, 15.33170060431534409 ) ) ;
#171 = ORIENTED_EDGE ( 'NONE', *, *, #225, .T. ) ;
#172 = DIRECTION ( 'NONE',  ( -4.275831445896958607E-31, -1.000000000000000000, -1.224646799147353207E-16 ) ) ;
#173 = CARTESIAN_POINT ( 'NONE',  ( 1.312796983405018394E-13, -4.604671964794048513E-15, 37.60000000000000853 ) ) ;
#174 = CC_DESIGN_PERSON_AND_ORGANIZATION_ASSIGNMENT ( #79, #162, ( #146 ) ) ;
#175 = ADVANCED_FACE ( 'NONE', ( #4 ), #21, .F. ) ;
#176 = PERSON_AND_ORGANIZATION ( #26, #130 ) ;
#177 = APPROVAL_ROLE ( '' ) ;
#178 = DATE_AND_TIME ( #145, #17 ) ;
#179 = CLOSED_SHELL ( 'NONE', ( #28, #58, #71 ) ) ;
#180 = CC_DESIGN_SECURITY_CLASSIFICATION ( #110, ( #146 ) ) ;
#181 = DIRECTION ( 'NONE',  ( 4.275831445896958607E-31, 1.000000000000000000, 1.224646799147353207E-16 ) ) ;
#182 = EDGE_LOOP ( 'NONE', ( #242 ) ) ;
#183 = DIRECTION ( 'NONE',  ( 1.000000000000000000, 0.0000000000000000000, -3.614007241618327866E-15 ) ) ;
#184 = ORIENTED_EDGE ( 'NONE', *, *, #135, .T. ) ;
#185 = VERTEX_POINT ( 'NONE', #16 ) ;
#186 = FACE_OUTER_BOUND ( 'NONE', #117, .T. ) ;
#187 = ORIENTED_EDGE ( 'NONE', *, *, #32, .T. ) ;
#188 = CARTESIAN_POINT ( 'NONE',  ( 1.312796983405018394E-13, -4.604671964794048513E-15, 37.60000000000000853 ) ) ;
#189 = CARTESIAN_POINT ( 'NONE',  ( 1.326762908760390675E-13, 1.599999999999997202, 38.00000000000000711 ) ) ;
#190 = CC_DESIGN_DATE_AND_TIME_ASSIGNMENT ( #212, #24, ( #62 ) ) ;
#191 = PERSON_AND_ORGANIZATION ( #26, #130 ) ;
#192 = COORDINATED_UNIVERSAL_TIME_OFFSET ( 1, 0, .AHEAD. ) ;
#193 = APPROVAL_PERSON_ORGANIZATION ( #233, #20, #43 ) ;
#194 = MECHANICAL_CONTEXT ( 'NONE', #29, 'mechanical' ) ;
#195 = PLANE ( 'NONE',  #78 ) ;
#196 = DESIGN_CONTEXT ( 'detailed design', #218, 'design' ) ;
#197 = CIRCLE ( 'NONE', #105, 1.999999999999999556 ) ;
#198 = DIRECTION ( 'NONE',  ( -3.491481338843133355E-15, 1.224646799147353207E-16, -1.000000000000000000 ) ) ;
#199 = ORIENTED_EDGE ( 'NONE', *, *, #243, .T. ) ;
#200 = CONICAL_SURFACE ( 'NONE', #100, 4.000000000000000000, 0.2617993877991427465 ) ;
#201 = PLANE ( 'NONE',  #210 ) ;
#202 = EDGE_LOOP ( 'NONE', ( #93 ) ) ;
#203 = VERTEX_POINT ( 'NONE', #189 ) ;
#204 = EDGE_LOOP ( 'NONE', ( #134 ) ) ;
#205 = CC_DESIGN_PERSON_AND_ORGANIZATION_ASSIGNMENT ( #215, #47, ( #146 ) ) ;
#206 = DIRECTION ( 'NONE',  ( -3.491481338843133355E-15, 1.224646799147353207E-16, -1.000000000000000000 ) ) ;
#207 = ADVANCED_FACE ( 'NONE', ( #220, #36 ), #219, .T. ) ;
#208 = CARTESIAN_POINT ( 'NONE',  ( 0.0000000000000000000, 0.0000000000000000000, 0.0000000000000000000 ) ) ;
#209 = VERTEX_POINT ( 'NONE', #136 ) ;
#210 = AXIS2_PLACEMENT_3D ( 'NONE', #115, #50, #69 ) ;
#211 = DIRECTION ( 'NONE',  ( -3.491481338843133355E-15, 1.224646799147353207E-16, -1.000000000000000000 ) ) ;
#212 = DATE_AND_TIME ( #45, #129 ) ;
#213 = SHAPE_DEFINITION_REPRESENTATION ( #82, #90 ) ;
#214 = CYLINDRICAL_SURFACE ( 'NONE', #118, 0.1500000000000008271 ) ;
#215 = PERSON_AND_ORGANIZATION ( #26, #130 ) ;
#216 = DATE_TIME_ROLE ( 'classification_date' ) ;
#217 = CC_DESIGN_DATE_AND_TIME_ASSIGNMENT ( #107, #216, ( #110 ) ) ;
#218 = APPLICATION_CONTEXT ( 'configuration controlled 3d designs of mechanical parts and assemblies' ) ;
#219 = CYLINDRICAL_SURFACE ( 'NONE', #161, 2.000000000000000000 ) ;
#220 = FACE_OUTER_BOUND ( 'NONE', #33, .T. ) ;
#221 = EDGE_LOOP ( 'NONE', ( #1 ) ) ;
#222 = CIRCLE ( 'NONE', #94, 0.1500000000000008271 ) ;
#223 = DIRECTION ( 'NONE',  ( 3.491481338843133355E-15, -0.0000000000000000000, 1.000000000000000000 ) ) ;
#224 = MANIFOLD_SOLID_BREP ( 'Corps-Déplacer/Copier1[1]', #5 ) ;
#225 = EDGE_CURVE ( 'NONE', #125, #125, #166, .T. ) ;
#226 = DIRECTION ( 'NONE',  ( -3.491481338843133355E-15, 1.224646799147353207E-16, -1.000000000000000000 ) ) ;
#227 = CIRCLE ( 'NONE', #76, 1.600000000000001865 ) ;
#228 = CC_DESIGN_PERSON_AND_ORGANIZATION_ASSIGNMENT ( #68, #44, ( #102 ) ) ;
#229 = CARTESIAN_POINT ( 'NONE',  ( 0.0000000000000000000, 0.0000000000000000000, 0.0000000000000000000 ) ) ;
#230 = EDGE_CURVE ( 'NONE', #203, #203, #227, .T. ) ;
#231 = FACE_OUTER_BOUND ( 'NONE', #98, .T. ) ;
#232 =( GEOMETRIC_REPRESENTATION_CONTEXT ( 3 ) GLOBAL_UNCERTAINTY_ASSIGNED_CONTEXT ( ( #67 ) ) GLOBAL_UNIT_ASSIGNED_CONTEXT ( ( #139, #37, #22 ) ) REPRESENTATION_CONTEXT ( 'NONE', 'WORKASPACE' ) );
#233 = PERSON_AND_ORGANIZATION ( #26, #130 ) ;
#234 = APPROVAL_STATUS ( 'not_yet_approved' ) ;
#235 = CC_DESIGN_PERSON_AND_ORGANIZATION_ASSIGNMENT ( #176, #104, ( #110 ) ) ;
#236 = AXIS2_PLACEMENT_3D ( 'NONE', #51, #198, #181 ) ;
#237 = AXIS2_PLACEMENT_3D ( 'NONE', #97, #143, #142 ) ;
#238 = CARTESIAN_POINT ( 'NONE',  ( -1.710332578358783443E-30, 0.0000000000000000000, -4.898587196589413815E-16 ) ) ;
#239 = ORIENTED_EDGE ( 'NONE', *, *, #124, .T. ) ;
#240 = APPROVAL ( #234, 'UNSPECIFIED' ) ;
#241 = DIRECTION ( 'NONE',  ( 3.491481338843133355E-15, -0.0000000000000000000, 1.000000000000000000 ) ) ;
#242 = ORIENTED_EDGE ( 'NONE', *, *, #32, .F. ) ;
#243 = EDGE_CURVE ( 'NONE', #185, #185, #56, .T. ) ;
ENDSEC;
END-ISO-10303-21;
