ISO-10303-21;
HEADER;
FILE_DESCRIPTION (( 'STEP AP203' ),
    '1' );
FILE_NAME ('334940.step',
    '2021-11-09T06:59:49',
    ( '' ),
    ( '' ),
    'SwSTEP 2.0',
    'SolidWorks 2019',
    '' );
FILE_SCHEMA (( 'CONFIG_CONTROL_DESIGN' ));
ENDSEC;

DATA;
#1 = APPROVAL_STATUS ( 'not_yet_approved' ) ;
#2 = AXIS2_PLACEMENT_3D ( 'NONE', #87, #183, #13 ) ;
#3 = MANIFOLD_SOLID_BREP ( 'Corps-Déplacer/Copier1[1]', #35 ) ;
#4 = EDGE_LOOP ( 'NONE', ( #38 ) ) ;
#5 = DIRECTION ( 'NONE',  ( -3.491481338843133355E-15, 0.0000000000000000000, -1.000000000000000000 ) ) ;
#6 = APPROVAL_STATUS ( 'not_yet_approved' ) ;
#7 = PERSON_AND_ORGANIZATION ( #152, #62 ) ;
#8 = DIRECTION ( 'NONE',  ( 3.491481338843133355E-15, -0.0000000000000000000, 1.000000000000000000 ) ) ;
#9 = DATE_AND_TIME ( #108, #105 ) ;
#10 = DIRECTION ( 'NONE',  ( 1.000000000000000000, 0.0000000000000000000, -4.625929269271485322E-15 ) ) ;
#11 = CIRCLE ( 'NONE', #86, 6.000000000000000000 ) ;
#12 = CARTESIAN_POINT ( 'NONE',  ( 6.000000000000000000, 0.0000000000000000000, -2.082642559773154949E-14 ) ) ;
#13 = DIRECTION ( 'NONE',  ( -1.000000000000000000, 0.0000000000000000000, 3.491481338843133355E-15 ) ) ;
#14 = ADVANCED_FACE ( 'NONE', ( #193 ), #81, .F. ) ;
#15 = AXIS2_PLACEMENT_3D ( 'NONE', #146, #5, #134 ) ;
#16 = CALENDAR_DATE ( 2021, 9, 11 ) ;
#17 = APPROVAL_ROLE ( '' ) ;
#18 = DIRECTION ( 'NONE',  ( -1.000000000000000000, 0.0000000000000000000, 2.523234146875355702E-15 ) ) ;
#19 = CLOSED_SHELL ( 'NONE', ( #147, #14, #32 ) ) ;
#20 = PLANE ( 'NONE',  #15 ) ;
#21 = ORIENTED_EDGE ( 'NONE', *, *, #140, .T. ) ;
#22 = CARTESIAN_POINT ( 'NONE',  ( 2.583696190743918430E-13, 0.0000000000000000000, 74.00000000000000000 ) ) ;
#23 = DIRECTION ( 'NONE',  ( 3.491481338843133355E-15, -0.0000000000000000000, 1.000000000000000000 ) ) ;
#24 = DIRECTION ( 'NONE',  ( 1.000000000000000000, 0.0000000000000000000, -3.469446951953614189E-15 ) ) ;
#25 = APPROVAL_STATUS ( 'not_yet_approved' ) ;
#26 = DIRECTION ( 'NONE',  ( 1.000000000000000000, 0.0000000000000000000, -3.491481338843133355E-15 ) ) ;
#27 = APPROVAL ( #25, 'UNSPECIFIED' ) ;
#28 = CARTESIAN_POINT ( 'NONE',  ( 6.000000000000256684, 0.0000000000000000000, 73.49999999999995737 ) ) ;
#29 = SHAPE_DEFINITION_REPRESENTATION ( #77, #34 ) ;
#30 = CALENDAR_DATE ( 2021, 9, 11 ) ;
#31 = ADVANCED_FACE ( 'NONE', ( #53, #164 ), #80, .T. ) ;
#32 = ADVANCED_FACE ( 'NONE', ( #79 ), #20, .T. ) ;
#33 = ORIENTED_EDGE ( 'NONE', *, *, #48, .F. ) ;
#34 = ADVANCED_BREP_SHAPE_REPRESENTATION ( '334940', ( #3, #139, #127 ), #83 ) ;
#35 = CLOSED_SHELL ( 'NONE', ( #172, #37, #31, #160 ) ) ;
#36 = EDGE_LOOP ( 'NONE', ( #21 ) ) ;
#37 = ADVANCED_FACE ( 'NONE', ( #121, #84 ), #75, .T. ) ;
#38 = ORIENTED_EDGE ( 'NONE', *, *, #186, .F. ) ;
#39 = ORIENTED_EDGE ( 'NONE', *, *, #48, .T. ) ;
#40 = AXIS2_PLACEMENT_3D ( 'NONE', #99, #148, #162 ) ;
#41 =( NAMED_UNIT ( * ) SI_UNIT ( $, .STERADIAN. ) SOLID_ANGLE_UNIT ( ) );
#42 = CARTESIAN_POINT ( 'NONE',  ( 2.583696190743918430E-13, 0.0000000000000000000, 74.00000000000000000 ) ) ;
#43 = APPROVAL_DATE_TIME ( #9, #27 ) ;
#44 = VERTEX_POINT ( 'NONE', #106 ) ;
#45 = AXIS2_PLACEMENT_3D ( 'NONE', #54, #103, #182 ) ;
#46 = PERSON_AND_ORGANIZATION ( #152, #62 ) ;
#47 = PERSON_AND_ORGANIZATION_ROLE ( 'creator' ) ;
#48 = EDGE_CURVE ( 'NONE', #167, #167, #95, .T. ) ;
#49 = LOCAL_TIME ( 7, 59, 49.00000000000000000, #93 ) ;
#50 = PERSON_AND_ORGANIZATION ( #152, #62 ) ;
#51 = EDGE_LOOP ( 'NONE', ( #133 ) ) ;
#52 = EDGE_LOOP ( 'NONE', ( #39 ) ) ;
#53 = FACE_OUTER_BOUND ( 'NONE', #192, .T. ) ;
#54 = CARTESIAN_POINT ( 'NONE',  ( 2.583696190743918430E-13, 0.0000000000000000000, 74.00000000000000000 ) ) ;
#55 = PERSON_AND_ORGANIZATION ( #152, #62 ) ;
#56 = VERTEX_POINT ( 'NONE', #102 ) ;
#57 = CARTESIAN_POINT ( 'NONE',  ( 0.0000000000000000000, 0.0000000000000000000, 0.0000000000000000000 ) ) ;
#58 = DIRECTION ( 'NONE',  ( 3.491481338843133355E-15, -0.0000000000000000000, 1.000000000000000000 ) ) ;
#59 = CIRCLE ( 'NONE', #173, 5.500000000000000000 ) ;
#60 =( NAMED_UNIT ( * ) PLANE_ANGLE_UNIT ( ) SI_UNIT ( $, .RADIAN. ) );
#61 = PERSON_AND_ORGANIZATION_ROLE ( 'design_owner' ) ;
#62 = ORGANIZATION ( 'UNSPECIFIED', 'UNSPECIFIED', '' ) ;
#63 = CC_DESIGN_PERSON_AND_ORGANIZATION_ASSIGNMENT ( #112, #47, ( #130 ) ) ;
#64 = PRODUCT ( '334940', '334940', '', ( #184 ) ) ;
#65 = APPROVAL_ROLE ( '' ) ;
#66 = AXIS2_PLACEMENT_3D ( 'NONE', #22, #101, #18 ) ;
#67 = CIRCLE ( 'NONE', #89, 6.000000000000000000 ) ;
#68 = DIRECTION ( 'NONE',  ( 1.000000000000000000, 0.0000000000000000000, -3.469446951953614189E-15 ) ) ;
#69 = CARTESIAN_POINT ( 'NONE',  ( 2.566238784049702322E-13, 0.0000000000000000000, 73.49999999999998579 ) ) ;
#70 = CC_DESIGN_SECURITY_CLASSIFICATION ( #135, ( #76 ) ) ;
#71 = CC_DESIGN_PERSON_AND_ORGANIZATION_ASSIGNMENT ( #50, #158, ( #135 ) ) ;
#72 = CARTESIAN_POINT ( 'NONE',  ( 6.284666409917640040E-14, 0.0000000000000000000, 18.00000000000000000 ) ) ;
#73 = FACE_OUTER_BOUND ( 'NONE', #131, .T. ) ;
#74 = APPROVAL_ROLE ( '' ) ;
#75 = CYLINDRICAL_SURFACE ( 'NONE', #195, 6.000000000000000000 ) ;
#76 = PRODUCT_DEFINITION_FORMATION_WITH_SPECIFIED_SOURCE ( 'ANY', '', #64, .NOT_KNOWN. ) ;
#77 = PRODUCT_DEFINITION_SHAPE ( 'NONE', 'NONE',  #130 ) ;
#78 = DATE_AND_TIME ( #30, #111 ) ;
#79 = FACE_OUTER_BOUND ( 'NONE', #115, .T. ) ;
#80 = CONICAL_SURFACE ( 'NONE', #66, 5.500000000000000000, 0.7853981633974344012 ) ;
#81 = PLANE ( 'NONE',  #40 ) ;
#82 = PERSON_AND_ORGANIZATION ( #152, #62 ) ;
#83 =( GEOMETRIC_REPRESENTATION_CONTEXT ( 3 ) GLOBAL_UNCERTAINTY_ASSIGNED_CONTEXT ( ( #149 ) ) GLOBAL_UNIT_ASSIGNED_CONTEXT ( ( #157, #60, #41 ) ) REPRESENTATION_CONTEXT ( 'NONE', 'WORKASPACE' ) );
#84 = FACE_OUTER_BOUND ( 'NONE', #4, .T. ) ;
#85 = DIRECTION ( 'NONE',  ( 3.491481338843133355E-15, -0.0000000000000000000, 1.000000000000000000 ) ) ;
#86 = AXIS2_PLACEMENT_3D ( 'NONE', #69, #23, #10 ) ;
#87 = CARTESIAN_POINT ( 'NONE',  ( 6.284666409917640040E-14, 0.0000000000000000000, 18.00000000000000000 ) ) ;
#88 = PERSON_AND_ORGANIZATION ( #152, #62 ) ;
#89 = AXIS2_PLACEMENT_3D ( 'NONE', #180, #122, #24 ) ;
#90 = CC_DESIGN_APPROVAL ( #110, ( #76 ) ) ;
#91 = EDGE_CURVE ( 'NONE', #44, #44, #67, .T. ) ;
#92 = COORDINATED_UNIVERSAL_TIME_OFFSET ( 1, 0, .AHEAD. ) ;
#93 = COORDINATED_UNIVERSAL_TIME_OFFSET ( 1, 0, .AHEAD. ) ;
#94 = EDGE_LOOP ( 'NONE', ( #97 ) ) ;
#95 = CIRCLE ( 'NONE', #181, 6.000000000000000000 ) ;
#96 = APPROVAL_PERSON_ORGANIZATION ( #82, #27, #74 ) ;
#97 = ORIENTED_EDGE ( 'NONE', *, *, #140, .F. ) ;
#98 = CC_DESIGN_PERSON_AND_ORGANIZATION_ASSIGNMENT ( #88, #61, ( #64 ) ) ;
#99 = CARTESIAN_POINT ( 'NONE',  ( 6.284666409917640040E-14, 0.0000000000000000000, 18.00000000000000000 ) ) ;
#100 = LOCAL_TIME ( 7, 59, 49.00000000000000000, #92 ) ;
#101 = DIRECTION ( 'NONE',  ( -3.491481338843133355E-15, 0.0000000000000000000, -1.000000000000000000 ) ) ;
#102 = CARTESIAN_POINT ( 'NONE',  ( 5.500000000000258460, 0.0000000000000000000, 73.99999999999998579 ) ) ;
#103 = DIRECTION ( 'NONE',  ( 3.491481338843133355E-15, -0.0000000000000000000, 1.000000000000000000 ) ) ;
#104 = DIRECTION ( 'NONE',  ( 3.491481338843133355E-15, -0.0000000000000000000, 1.000000000000000000 ) ) ;
#105 = LOCAL_TIME ( 7, 59, 49.00000000000000000, #136 ) ;
#106 = CARTESIAN_POINT ( 'NONE',  ( 6.000000000000062172, 0.0000000000000000000, 17.99999999999997868 ) ) ;
#107 = DIRECTION ( 'NONE',  ( 1.000000000000000000, 0.0000000000000000000, 0.0000000000000000000 ) ) ;
#108 = CALENDAR_DATE ( 2021, 9, 11 ) ;
#109 = AXIS2_PLACEMENT_3D ( 'NONE', #72, #104, #68 ) ;
#110 = APPROVAL ( #1, 'UNSPECIFIED' ) ;
#111 = LOCAL_TIME ( 7, 59, 49.00000000000000000, #128 ) ;
#112 = PERSON_AND_ORGANIZATION ( #152, #62 ) ;
#113 = ORIENTED_EDGE ( 'NONE', *, *, #123, .F. ) ;
#114 = ORIENTED_EDGE ( 'NONE', *, *, #123, .T. ) ;
#115 = EDGE_LOOP ( 'NONE', ( #33 ) ) ;
#116 = DESIGN_CONTEXT ( 'detailed design', #132, 'design' ) ;
#117 = EDGE_LOOP ( 'NONE', ( #113 ) ) ;
#118 = FACE_OUTER_BOUND ( 'NONE', #51, .T. ) ;
#119 = PERSON_AND_ORGANIZATION_ROLE ( 'creator' ) ;
#120 = APPLICATION_PROTOCOL_DEFINITION ( 'international standard', 'config_control_design', 1994, #145 ) ;
#121 = FACE_OUTER_BOUND ( 'NONE', #176, .T. ) ;
#122 = DIRECTION ( 'NONE',  ( 3.491481338843133355E-15, -0.0000000000000000000, 1.000000000000000000 ) ) ;
#123 = EDGE_CURVE ( 'NONE', #56, #56, #59, .T. ) ;
#124 = CC_DESIGN_PERSON_AND_ORGANIZATION_ASSIGNMENT ( #7, #119, ( #76 ) ) ;
#125 = PLANE ( 'NONE',  #2 ) ;
#126 = APPLICATION_PROTOCOL_DEFINITION ( 'international standard', 'config_control_design', 1994, #132 ) ;
#127 = AXIS2_PLACEMENT_3D ( 'NONE', #201, #142, #107 ) ;
#128 = COORDINATED_UNIVERSAL_TIME_OFFSET ( 1, 0, .AHEAD. ) ;
#129 = APPROVAL_DATE_TIME ( #159, #110 ) ;
#130 = PRODUCT_DEFINITION ( 'UNKNOWN', '', #76, #116 ) ;
#131 = EDGE_LOOP ( 'NONE', ( #114 ) ) ;
#132 = APPLICATION_CONTEXT ( 'configuration controlled 3d designs of mechanical parts and assemblies' ) ;
#133 = ORIENTED_EDGE ( 'NONE', *, *, #91, .F. ) ;
#134 = DIRECTION ( 'NONE',  ( -1.000000000000000000, 0.0000000000000000000, 3.491481338843133355E-15 ) ) ;
#135 = SECURITY_CLASSIFICATION ( '', '', #196 ) ;
#136 = COORDINATED_UNIVERSAL_TIME_OFFSET ( 1, 0, .AHEAD. ) ;
#137 = DIRECTION ( 'NONE',  ( 1.000000000000000000, 0.0000000000000000000, -3.491481338843133355E-15 ) ) ;
#138 = CYLINDRICAL_SURFACE ( 'NONE', #163, 6.000000000000000000 ) ;
#139 = MANIFOLD_SOLID_BREP ( 'Corps-Déplacer/Copier1[2]', #19 ) ;
#140 = EDGE_CURVE ( 'NONE', #179, #179, #153, .T. ) ;
#141 = PLANE ( 'NONE',  #45 ) ;
#142 = DIRECTION ( 'NONE',  ( 0.0000000000000000000, 0.0000000000000000000, 1.000000000000000000 ) ) ;
#143 = CALENDAR_DATE ( 2021, 9, 11 ) ;
#144 = CALENDAR_DATE ( 2021, 9, 11 ) ;
#145 = APPLICATION_CONTEXT ( 'configuration controlled 3d designs of mechanical parts and assemblies' ) ;
#146 = CARTESIAN_POINT ( 'NONE',  ( 2.137876538271898504E-31, 0.0000000000000000000, 6.123121766362532060E-17 ) ) ;
#147 = ADVANCED_FACE ( 'NONE', ( #169, #154 ), #138, .T. ) ;
#148 = DIRECTION ( 'NONE',  ( -3.491481338843133355E-15, 0.0000000000000000000, -1.000000000000000000 ) ) ;
#149 = UNCERTAINTY_MEASURE_WITH_UNIT (LENGTH_MEASURE( 1.000000000000000082E-05 ), #157, 'distance_accuracy_value', 'NONE');
#150 = CC_DESIGN_APPROVAL ( #27, ( #135 ) ) ;
#151 = DIRECTION ( 'NONE',  ( 3.491481338843133355E-15, -0.0000000000000000000, 1.000000000000000000 ) ) ;
#152 = PERSON ( 'UNSPECIFIED', 'UNSPECIFIED', 'UNSPECIFIED', ('UNSPECIFIED'), ('UNSPECIFIED'), ('UNSPECIFIED') ) ;
#153 = CIRCLE ( 'NONE', #109, 6.000000000000000000 ) ;
#154 = FACE_OUTER_BOUND ( 'NONE', #94, .T. ) ;
#155 = DATE_AND_TIME ( #144, #49 ) ;
#156 = DIRECTION ( 'NONE',  ( 1.000000000000000000, 0.0000000000000000000, -3.491481338843133355E-15 ) ) ;
#157 =( LENGTH_UNIT ( ) NAMED_UNIT ( * ) SI_UNIT ( .MILLI., .METRE. ) );
#158 = PERSON_AND_ORGANIZATION_ROLE ( 'classification_officer' ) ;
#159 = DATE_AND_TIME ( #16, #100 ) ;
#160 = ADVANCED_FACE ( 'NONE', ( #73 ), #141, .T. ) ;
#161 = CC_DESIGN_DATE_AND_TIME_ASSIGNMENT ( #78, #185, ( #130 ) ) ;
#162 = DIRECTION ( 'NONE',  ( -1.000000000000000000, 0.0000000000000000000, 3.491481338843133355E-15 ) ) ;
#163 = AXIS2_PLACEMENT_3D ( 'NONE', #57, #58, #26 ) ;
#164 = FACE_BOUND ( 'NONE', #117, .T. ) ;
#165 = CC_DESIGN_PERSON_AND_ORGANIZATION_ASSIGNMENT ( #55, #177, ( #76 ) ) ;
#166 = VERTEX_POINT ( 'NONE', #28 ) ;
#167 = VERTEX_POINT ( 'NONE', #12 ) ;
#168 = PRODUCT_RELATED_PRODUCT_CATEGORY ( 'detail', '', ( #64 ) ) ;
#169 = FACE_OUTER_BOUND ( 'NONE', #52, .T. ) ;
#170 = CARTESIAN_POINT ( 'NONE',  ( 6.000000000000062172, 0.0000000000000000000, 17.99999999999997868 ) ) ;
#171 = DATE_AND_TIME ( #143, #190 ) ;
#172 = ADVANCED_FACE ( 'NONE', ( #118 ), #125, .T. ) ;
#173 = AXIS2_PLACEMENT_3D ( 'NONE', #42, #8, #194 ) ;
#174 = ORIENTED_EDGE ( 'NONE', *, *, #186, .T. ) ;
#175 = APPROVAL_PERSON_ORGANIZATION ( #188, #200, #17 ) ;
#176 = EDGE_LOOP ( 'NONE', ( #191 ) ) ;
#177 = PERSON_AND_ORGANIZATION_ROLE ( 'design_supplier' ) ;
#178 = DATE_TIME_ROLE ( 'classification_date' ) ;
#179 = VERTEX_POINT ( 'NONE', #170 ) ;
#180 = CARTESIAN_POINT ( 'NONE',  ( 6.284666409917640040E-14, 0.0000000000000000000, 18.00000000000000000 ) ) ;
#181 = AXIS2_PLACEMENT_3D ( 'NONE', #197, #85, #137 ) ;
#182 = DIRECTION ( 'NONE',  ( 1.000000000000000000, 0.0000000000000000000, -3.491481338843133355E-15 ) ) ;
#183 = DIRECTION ( 'NONE',  ( -3.491481338843133355E-15, 0.0000000000000000000, -1.000000000000000000 ) ) ;
#184 = MECHANICAL_CONTEXT ( 'NONE', #145, 'mechanical' ) ;
#185 = DATE_TIME_ROLE ( 'creation_date' ) ;
#186 = EDGE_CURVE ( 'NONE', #166, #166, #11, .T. ) ;
#187 = COORDINATED_UNIVERSAL_TIME_OFFSET ( 1, 0, .AHEAD. ) ;
#188 = PERSON_AND_ORGANIZATION ( #152, #62 ) ;
#189 = APPROVAL_PERSON_ORGANIZATION ( #46, #110, #65 ) ;
#190 = LOCAL_TIME ( 7, 59, 49.00000000000000000, #187 ) ;
#191 = ORIENTED_EDGE ( 'NONE', *, *, #91, .T. ) ;
#192 = EDGE_LOOP ( 'NONE', ( #174 ) ) ;
#193 = FACE_OUTER_BOUND ( 'NONE', #36, .T. ) ;
#194 = DIRECTION ( 'NONE',  ( 1.000000000000000000, 0.0000000000000000000, -2.523234146875355702E-15 ) ) ;
#195 = AXIS2_PLACEMENT_3D ( 'NONE', #198, #151, #156 ) ;
#196 = SECURITY_CLASSIFICATION_LEVEL ( 'unclassified' ) ;
#197 = CARTESIAN_POINT ( 'NONE',  ( 4.275753076543797008E-31, 0.0000000000000000000, 1.224624353272506412E-16 ) ) ;
#198 = CARTESIAN_POINT ( 'NONE',  ( 0.0000000000000000000, 0.0000000000000000000, 0.0000000000000000000 ) ) ;
#199 = CC_DESIGN_APPROVAL ( #200, ( #130 ) ) ;
#200 = APPROVAL ( #6, 'UNSPECIFIED' ) ;
#201 = CARTESIAN_POINT ( 'NONE',  ( 0.0000000000000000000, 0.0000000000000000000, 0.0000000000000000000 ) ) ;
#202 = CC_DESIGN_DATE_AND_TIME_ASSIGNMENT ( #155, #178, ( #135 ) ) ;
#203 = APPROVAL_DATE_TIME ( #171, #200 ) ;
ENDSEC;
END-ISO-10303-21;
