ISO-10303-21;
HEADER;
FILE_DESCRIPTION (( 'STEP AP203' ),
    '1' );
FILE_NAME ('334939.step',
    '2021-11-09T06:59:48',
    ( '' ),
    ( '' ),
    'SwSTEP 2.0',
    'SolidWorks 2019',
    '' );
FILE_SCHEMA (( 'CONFIG_CONTROL_DESIGN' ));
ENDSEC;

DATA;
#1 = CARTESIAN_POINT ( 'NONE',  ( 5.237222008264700033E-14, 0.0000000000000000000, 15.00000000000000000 ) ) ;
#2 = AXIS2_PLACEMENT_3D ( 'NONE', #1, #136, #43 ) ;
#3 = COORDINATED_UNIVERSAL_TIME_OFFSET ( 1, 0, .AHEAD. ) ;
#4 = DATE_AND_TIME ( #52, #167 ) ;
#5 = CC_DESIGN_PERSON_AND_ORGANIZATION_ASSIGNMENT ( #176, #157, ( #160 ) ) ;
#6 = DATE_AND_TIME ( #175, #141 ) ;
#7 = PERSON_AND_ORGANIZATION_ROLE ( 'design_owner' ) ;
#8 = CIRCLE ( 'NONE', #44, 5.000000000000000000 ) ;
#9 = PLANE ( 'NONE',  #150 ) ;
#10 = ORIENTED_EDGE ( 'NONE', *, *, #35, .T. ) ;
#11 = ADVANCED_FACE ( 'NONE', ( #146 ), #9, .F. ) ;
#12 = CIRCLE ( 'NONE', #29, 5.000000000000000000 ) ;
#13 = DIRECTION ( 'NONE',  ( -3.491481338843133355E-15, 0.0000000000000000000, -1.000000000000000000 ) ) ;
#14 = CARTESIAN_POINT ( 'NONE',  ( 5.000000000000232703, 0.0000000000000000000, 66.49999999999998579 ) ) ;
#15 = CARTESIAN_POINT ( 'NONE',  ( 5.000000000000052403, 0.0000000000000000000, 14.99999999999998224 ) ) ;
#16 = VERTEX_POINT ( 'NONE', #31 ) ;
#17 = PLANE ( 'NONE',  #87 ) ;
#18 = APPROVAL_DATE_TIME ( #4, #20 ) ;
#19 = APPROVAL_STATUS ( 'not_yet_approved' ) ;
#20 = APPROVAL ( #19, 'UNSPECIFIED' ) ;
#21 = DIRECTION ( 'NONE',  ( 1.000000000000000000, 0.0000000000000000000, 0.0000000000000000000 ) ) ;
#22 = CIRCLE ( 'NONE', #200, 5.000000000000000000 ) ;
#23 = ORIENTED_EDGE ( 'NONE', *, *, #201, .F. ) ;
#24 = CIRCLE ( 'NONE', #110, 4.499999999999999112 ) ;
#25 = DESIGN_CONTEXT ( 'detailed design', #81, 'design' ) ;
#26 = ORIENTED_EDGE ( 'NONE', *, *, #171, .T. ) ;
#27 = ORIENTED_EDGE ( 'NONE', *, *, #171, .F. ) ;
#28 = APPLICATION_CONTEXT ( 'configuration controlled 3d designs of mechanical parts and assemblies' ) ;
#29 = AXIS2_PLACEMENT_3D ( 'NONE', #93, #169, #62 ) ;
#30 = CARTESIAN_POINT ( 'NONE',  ( 2.339292497024899474E-13, 0.0000000000000000000, 67.00000000000000000 ) ) ;
#31 = CARTESIAN_POINT ( 'NONE',  ( 5.000000000000000000, 0.0000000000000000000, -1.733494425888841614E-14 ) ) ;
#32 = DIRECTION ( 'NONE',  ( -3.491481338843133355E-15, 0.0000000000000000000, -1.000000000000000000 ) ) ;
#33 = AXIS2_PLACEMENT_3D ( 'NONE', #185, #76, #203 ) ;
#34 = CC_DESIGN_PERSON_AND_ORGANIZATION_ASSIGNMENT ( #190, #7, ( #85 ) ) ;
#35 = EDGE_CURVE ( 'NONE', #16, #16, #22, .T. ) ;
#36 =( LENGTH_UNIT ( ) NAMED_UNIT ( * ) SI_UNIT ( .MILLI., .METRE. ) );
#37 = APPROVAL_ROLE ( '' ) ;
#38 = ADVANCED_FACE ( 'NONE', ( #133 ), #104, .T. ) ;
#39 = APPROVAL_STATUS ( 'not_yet_approved' ) ;
#40 = DATE_AND_TIME ( #144, #159 ) ;
#41 = EDGE_LOOP ( 'NONE', ( #42 ) ) ;
#42 = ORIENTED_EDGE ( 'NONE', *, *, #64, .F. ) ;
#43 = DIRECTION ( 'NONE',  ( 1.000000000000000000, 0.0000000000000000000, -3.469446951953614189E-15 ) ) ;
#44 = AXIS2_PLACEMENT_3D ( 'NONE', #77, #63, #137 ) ;
#45 = CYLINDRICAL_SURFACE ( 'NONE', #196, 5.000000000000000000 ) ;
#46 = DIRECTION ( 'NONE',  ( -1.000000000000000000, 0.0000000000000000000, 3.491481338843133355E-15 ) ) ;
#47 = CARTESIAN_POINT ( 'NONE',  ( 5.000000000000052403, 0.0000000000000000000, 14.99999999999998224 ) ) ;
#48 = CLOSED_SHELL ( 'NONE', ( #118, #11, #70 ) ) ;
#49 = SECURITY_CLASSIFICATION_LEVEL ( 'unclassified' ) ;
#50 = APPROVAL_ROLE ( '' ) ;
#51 = LOCAL_TIME ( 7, 59, 48.00000000000000000, #114 ) ;
#52 = CALENDAR_DATE ( 2021, 9, 11 ) ;
#53 = CARTESIAN_POINT ( 'NONE',  ( 0.0000000000000000000, 0.0000000000000000000, 0.0000000000000000000 ) ) ;
#54 = APPROVAL_PERSON_ORGANIZATION ( #156, #20, #193 ) ;
#55 = DIRECTION ( 'NONE',  ( -1.000000000000000000, 0.0000000000000000000, 3.491481338843133355E-15 ) ) ;
#56 = CC_DESIGN_PERSON_AND_ORGANIZATION_ASSIGNMENT ( #66, #82, ( #89 ) ) ;
#57 = ORIENTED_EDGE ( 'NONE', *, *, #35, .F. ) ;
#58 = EDGE_LOOP ( 'NONE', ( #88 ) ) ;
#59 = DIRECTION ( 'NONE',  ( -3.491481338843133355E-15, 0.0000000000000000000, -1.000000000000000000 ) ) ;
#60 = VERTEX_POINT ( 'NONE', #92 ) ;
#61 = CC_DESIGN_APPROVAL ( #20, ( #89 ) ) ;
#62 = DIRECTION ( 'NONE',  ( 1.000000000000000000, 0.0000000000000000000, -2.775557561562891351E-15 ) ) ;
#63 = DIRECTION ( 'NONE',  ( 3.491481338843133355E-15, -0.0000000000000000000, 1.000000000000000000 ) ) ;
#64 = EDGE_CURVE ( 'NONE', #187, #187, #8, .T. ) ;
#65 = PERSON_AND_ORGANIZATION ( #109, #132 ) ;
#66 = PERSON_AND_ORGANIZATION ( #109, #132 ) ;
#67 = CIRCLE ( 'NONE', #2, 5.000000000000000000 ) ;
#68 = SHAPE_DEFINITION_REPRESENTATION ( #152, #192 ) ;
#69 = APPROVAL_STATUS ( 'not_yet_approved' ) ;
#70 = ADVANCED_FACE ( 'NONE', ( #134 ), #17, .T. ) ;
#71 = EDGE_LOOP ( 'NONE', ( #130 ) ) ;
#72 = EDGE_LOOP ( 'NONE', ( #195 ) ) ;
#73 = CLOSED_SHELL ( 'NONE', ( #38, #125, #142, #162 ) ) ;
#74 = CC_DESIGN_APPROVAL ( #131, ( #160 ) ) ;
#75 = VERTEX_POINT ( 'NONE', #47 ) ;
#76 = DIRECTION ( 'NONE',  ( 3.491481338843133355E-15, -0.0000000000000000000, 1.000000000000000000 ) ) ;
#77 = CARTESIAN_POINT ( 'NONE',  ( 5.237222008264700033E-14, 0.0000000000000000000, 15.00000000000000000 ) ) ;
#78 = DIRECTION ( 'NONE',  ( 1.000000000000000000, 0.0000000000000000000, -3.491481338843133355E-15 ) ) ;
#79 = COORDINATED_UNIVERSAL_TIME_OFFSET ( 1, 0, .AHEAD. ) ;
#80 = AXIS2_PLACEMENT_3D ( 'NONE', #30, #32, #122 ) ;
#81 = APPLICATION_CONTEXT ( 'configuration controlled 3d designs of mechanical parts and assemblies' ) ;
#82 = PERSON_AND_ORGANIZATION_ROLE ( 'classification_officer' ) ;
#83 = APPLICATION_PROTOCOL_DEFINITION ( 'international standard', 'config_control_design', 1994, #81 ) ;
#84 = DIRECTION ( 'NONE',  ( 0.0000000000000000000, 0.0000000000000000000, 1.000000000000000000 ) ) ;
#85 = PRODUCT ( '334939', '334939', '', ( #123 ) ) ;
#86 = EDGE_LOOP ( 'NONE', ( #26 ) ) ;
#87 = AXIS2_PLACEMENT_3D ( 'NONE', #199, #59, #46 ) ;
#88 = ORIENTED_EDGE ( 'NONE', *, *, #107, .T. ) ;
#89 = SECURITY_CLASSIFICATION ( '', '', #49 ) ;
#90 = DIRECTION ( 'NONE',  ( -3.491481338843133355E-15, 0.0000000000000000000, -1.000000000000000000 ) ) ;
#91 = CARTESIAN_POINT ( 'NONE',  ( 2.339292497024899474E-13, 0.0000000000000000000, 67.00000000000000000 ) ) ;
#92 = CARTESIAN_POINT ( 'NONE',  ( 4.500000000000232703, 0.0000000000000000000, 66.99999999999998579 ) ) ;
#93 = CARTESIAN_POINT ( 'NONE',  ( 2.321835090330683366E-13, 0.0000000000000000000, 66.50000000000000000 ) ) ;
#94 = DIRECTION ( 'NONE',  ( 3.491481338843133355E-15, -0.0000000000000000000, 1.000000000000000000 ) ) ;
#95 = APPROVAL_PERSON_ORGANIZATION ( #128, #98, #37 ) ;
#96 = DATE_TIME_ROLE ( 'classification_date' ) ;
#97 = CC_DESIGN_DATE_AND_TIME_ASSIGNMENT ( #191, #158, ( #139 ) ) ;
#98 = APPROVAL ( #69, 'UNSPECIFIED' ) ;
#99 = CALENDAR_DATE ( 2021, 9, 11 ) ;
#100 = APPROVAL_PERSON_ORGANIZATION ( #143, #131, #50 ) ;
#101 = PERSON_AND_ORGANIZATION_ROLE ( 'creator' ) ;
#102 = MANIFOLD_SOLID_BREP ( 'Corps-Déplacer/Copier1[2]', #48 ) ;
#103 =( GEOMETRIC_REPRESENTATION_CONTEXT ( 3 ) GLOBAL_UNCERTAINTY_ASSIGNED_CONTEXT ( ( #116 ) ) GLOBAL_UNIT_ASSIGNED_CONTEXT ( ( #36, #173, #188 ) ) REPRESENTATION_CONTEXT ( 'NONE', 'WORKASPACE' ) );
#104 = PLANE ( 'NONE',  #163 ) ;
#105 = FACE_OUTER_BOUND ( 'NONE', #145, .T. ) ;
#106 = PLANE ( 'NONE',  #183 ) ;
#107 = EDGE_CURVE ( 'NONE', #75, #75, #67, .T. ) ;
#108 = CARTESIAN_POINT ( 'NONE',  ( 0.0000000000000000000, 0.0000000000000000000, 0.0000000000000000000 ) ) ;
#109 = PERSON ( 'UNSPECIFIED', 'UNSPECIFIED', 'UNSPECIFIED', ('UNSPECIFIED'), ('UNSPECIFIED'), ('UNSPECIFIED') ) ;
#110 = AXIS2_PLACEMENT_3D ( 'NONE', #91, #151, #149 ) ;
#111 = PERSON_AND_ORGANIZATION ( #109, #132 ) ;
#112 = DATE_AND_TIME ( #127, #51 ) ;
#113 = CC_DESIGN_APPROVAL ( #98, ( #139 ) ) ;
#114 = COORDINATED_UNIVERSAL_TIME_OFFSET ( 1, 0, .AHEAD. ) ;
#115 = APPROVAL_DATE_TIME ( #40, #98 ) ;
#116 = UNCERTAINTY_MEASURE_WITH_UNIT (LENGTH_MEASURE( 1.000000000000000082E-05 ), #36, 'distance_accuracy_value', 'NONE');
#117 = CARTESIAN_POINT ( 'NONE',  ( 4.275753076543797008E-31, 0.0000000000000000000, 1.224624353272506412E-16 ) ) ;
#118 = ADVANCED_FACE ( 'NONE', ( #121, #119 ), #184, .T. ) ;
#119 = FACE_OUTER_BOUND ( 'NONE', #71, .T. ) ;
#120 = FACE_OUTER_BOUND ( 'NONE', #72, .T. ) ;
#121 = FACE_OUTER_BOUND ( 'NONE', #194, .T. ) ;
#122 = DIRECTION ( 'NONE',  ( -1.000000000000000000, 0.0000000000000000000, 3.083952846180990872E-15 ) ) ;
#123 = MECHANICAL_CONTEXT ( 'NONE', #28, 'mechanical' ) ;
#124 = COORDINATED_UNIVERSAL_TIME_OFFSET ( 1, 0, .AHEAD. ) ;
#125 = ADVANCED_FACE ( 'NONE', ( #120, #105 ), #45, .T. ) ;
#126 = CC_DESIGN_PERSON_AND_ORGANIZATION_ASSIGNMENT ( #65, #101, ( #139 ) ) ;
#127 = CALENDAR_DATE ( 2021, 9, 11 ) ;
#128 = PERSON_AND_ORGANIZATION ( #109, #132 ) ;
#129 = DIRECTION ( 'NONE',  ( 1.000000000000000000, 0.0000000000000000000, -3.491481338843133355E-15 ) ) ;
#130 = ORIENTED_EDGE ( 'NONE', *, *, #107, .F. ) ;
#131 = APPROVAL ( #39, 'UNSPECIFIED' ) ;
#132 = ORGANIZATION ( 'UNSPECIFIED', 'UNSPECIFIED', '' ) ;
#133 = FACE_OUTER_BOUND ( 'NONE', #41, .T. ) ;
#134 = FACE_OUTER_BOUND ( 'NONE', #147, .T. ) ;
#135 = LOCAL_TIME ( 7, 59, 48.00000000000000000, #124 ) ;
#136 = DIRECTION ( 'NONE',  ( 3.491481338843133355E-15, -0.0000000000000000000, 1.000000000000000000 ) ) ;
#137 = DIRECTION ( 'NONE',  ( 1.000000000000000000, 0.0000000000000000000, -3.469446951953614189E-15 ) ) ;
#138 = VERTEX_POINT ( 'NONE', #14 ) ;
#139 = PRODUCT_DEFINITION ( 'UNKNOWN', '', #160, #25 ) ;
#140 = COORDINATED_UNIVERSAL_TIME_OFFSET ( 1, 0, .AHEAD. ) ;
#141 = LOCAL_TIME ( 7, 59, 48.00000000000000000, #140 ) ;
#142 = ADVANCED_FACE ( 'NONE', ( #168, #182 ), #177, .T. ) ;
#143 = PERSON_AND_ORGANIZATION ( #109, #132 ) ;
#144 = CALENDAR_DATE ( 2021, 9, 11 ) ;
#145 = EDGE_LOOP ( 'NONE', ( #27 ) ) ;
#146 = FACE_OUTER_BOUND ( 'NONE', #58, .T. ) ;
#147 = EDGE_LOOP ( 'NONE', ( #57 ) ) ;
#148 = CARTESIAN_POINT ( 'NONE',  ( 5.237222008264700033E-14, 0.0000000000000000000, 15.00000000000000000 ) ) ;
#149 = DIRECTION ( 'NONE',  ( 1.000000000000000000, 0.0000000000000000000, -3.083952846180990872E-15 ) ) ;
#150 = AXIS2_PLACEMENT_3D ( 'NONE', #148, #13, #181 ) ;
#151 = DIRECTION ( 'NONE',  ( 3.491481338843133355E-15, -0.0000000000000000000, 1.000000000000000000 ) ) ;
#152 = PRODUCT_DEFINITION_SHAPE ( 'NONE', 'NONE',  #139 ) ;
#153 = PRODUCT_RELATED_PRODUCT_CATEGORY ( 'detail', '', ( #85 ) ) ;
#154 = CARTESIAN_POINT ( 'NONE',  ( 2.339292497024899474E-13, 0.0000000000000000000, 67.00000000000000000 ) ) ;
#155 = DIRECTION ( 'NONE',  ( 1.000000000000000000, 0.0000000000000000000, -3.491481338843133355E-15 ) ) ;
#156 = PERSON_AND_ORGANIZATION ( #109, #132 ) ;
#157 = PERSON_AND_ORGANIZATION_ROLE ( 'design_supplier' ) ;
#158 = DATE_TIME_ROLE ( 'creation_date' ) ;
#159 = LOCAL_TIME ( 7, 59, 48.00000000000000000, #3 ) ;
#160 = PRODUCT_DEFINITION_FORMATION_WITH_SPECIFIED_SOURCE ( 'ANY', '', #85, .NOT_KNOWN. ) ;
#161 = ORIENTED_EDGE ( 'NONE', *, *, #201, .T. ) ;
#162 = ADVANCED_FACE ( 'NONE', ( #202 ), #106, .T. ) ;
#163 = AXIS2_PLACEMENT_3D ( 'NONE', #166, #90, #55 ) ;
#164 = DIRECTION ( 'NONE',  ( 3.491481338843133355E-15, -0.0000000000000000000, 1.000000000000000000 ) ) ;
#165 = MANIFOLD_SOLID_BREP ( 'Corps-Déplacer/Copier1[1]', #73 ) ;
#166 = CARTESIAN_POINT ( 'NONE',  ( 5.237222008264700033E-14, 0.0000000000000000000, 15.00000000000000000 ) ) ;
#167 = LOCAL_TIME ( 7, 59, 48.00000000000000000, #79 ) ;
#168 = FACE_OUTER_BOUND ( 'NONE', #86, .T. ) ;
#169 = DIRECTION ( 'NONE',  ( 3.491481338843133355E-15, -0.0000000000000000000, 1.000000000000000000 ) ) ;
#170 = DIRECTION ( 'NONE',  ( 3.491481338843133355E-15, -0.0000000000000000000, 1.000000000000000000 ) ) ;
#171 = EDGE_CURVE ( 'NONE', #138, #138, #12, .T. ) ;
#172 = CC_DESIGN_DATE_AND_TIME_ASSIGNMENT ( #6, #96, ( #89 ) ) ;
#173 =( NAMED_UNIT ( * ) PLANE_ANGLE_UNIT ( ) SI_UNIT ( $, .RADIAN. ) );
#174 = PERSON_AND_ORGANIZATION_ROLE ( 'creator' ) ;
#175 = CALENDAR_DATE ( 2021, 9, 11 ) ;
#176 = PERSON_AND_ORGANIZATION ( #109, #132 ) ;
#177 = CONICAL_SURFACE ( 'NONE', #80, 4.499999999999999112, 0.7853981633974491672 ) ;
#178 = EDGE_LOOP ( 'NONE', ( #23 ) ) ;
#179 = AXIS2_PLACEMENT_3D ( 'NONE', #53, #84, #21 ) ;
#180 = CC_DESIGN_SECURITY_CLASSIFICATION ( #89, ( #160 ) ) ;
#181 = DIRECTION ( 'NONE',  ( -1.000000000000000000, 0.0000000000000000000, 3.491481338843133355E-15 ) ) ;
#182 = FACE_BOUND ( 'NONE', #178, .T. ) ;
#183 = AXIS2_PLACEMENT_3D ( 'NONE', #154, #94, #78 ) ;
#184 = CYLINDRICAL_SURFACE ( 'NONE', #33, 5.000000000000000000 ) ;
#185 = CARTESIAN_POINT ( 'NONE',  ( 0.0000000000000000000, 0.0000000000000000000, 0.0000000000000000000 ) ) ;
#186 = CC_DESIGN_PERSON_AND_ORGANIZATION_ASSIGNMENT ( #111, #174, ( #160 ) ) ;
#187 = VERTEX_POINT ( 'NONE', #15 ) ;
#188 =( NAMED_UNIT ( * ) SI_UNIT ( $, .STERADIAN. ) SOLID_ANGLE_UNIT ( ) );
#189 = APPROVAL_DATE_TIME ( #112, #131 ) ;
#190 = PERSON_AND_ORGANIZATION ( #109, #132 ) ;
#191 = DATE_AND_TIME ( #99, #135 ) ;
#192 = ADVANCED_BREP_SHAPE_REPRESENTATION ( '334939', ( #165, #102, #179 ), #103 ) ;
#193 = APPROVAL_ROLE ( '' ) ;
#194 = EDGE_LOOP ( 'NONE', ( #10 ) ) ;
#195 = ORIENTED_EDGE ( 'NONE', *, *, #64, .T. ) ;
#196 = AXIS2_PLACEMENT_3D ( 'NONE', #108, #170, #155 ) ;
#197 = EDGE_LOOP ( 'NONE', ( #161 ) ) ;
#198 = APPLICATION_PROTOCOL_DEFINITION ( 'international standard', 'config_control_design', 1994, #28 ) ;
#199 = CARTESIAN_POINT ( 'NONE',  ( 2.137876538271898504E-31, 0.0000000000000000000, 6.123121766362532060E-17 ) ) ;
#200 = AXIS2_PLACEMENT_3D ( 'NONE', #117, #164, #129 ) ;
#201 = EDGE_CURVE ( 'NONE', #60, #60, #24, .T. ) ;
#202 = FACE_OUTER_BOUND ( 'NONE', #197, .T. ) ;
#203 = DIRECTION ( 'NONE',  ( 1.000000000000000000, 0.0000000000000000000, -3.491481338843133355E-15 ) ) ;
ENDSEC;
END-ISO-10303-21;
