ISO-10303-21;
HEADER;
FILE_DESCRIPTION (( 'STEP AP203' ),
    '1' );
FILE_NAME ('334937.step',
    '2021-11-09T06:59:47',
    ( '' ),
    ( '' ),
    'SwSTEP 2.0',
    'SolidWorks 2019',
    '' );
FILE_SCHEMA (( 'CONFIG_CONTROL_DESIGN' ));
ENDSEC;

DATA;
#1 = FACE_OUTER_BOUND ( 'NONE', #69, .T. ) ;
#2 = DIRECTION ( 'NONE',  ( 1.000000000000000000, 0.0000000000000000000, -2.775557561562891351E-15 ) ) ;
#3 = DIRECTION ( 'NONE',  ( 1.000000000000000000, 0.0000000000000000000, 0.0000000000000000000 ) ) ;
#4 = APPLICATION_PROTOCOL_DEFINITION ( 'international standard', 'config_control_design', 1994, #80 ) ;
#5 = APPROVAL ( #68, 'UNSPECIFIED' ) ;
#6 = APPROVAL_ROLE ( '' ) ;
#7 = PERSON_AND_ORGANIZATION ( #101, #84 ) ;
#8 = CARTESIAN_POINT ( 'NONE',  ( 0.0000000000000000000, 0.0000000000000000000, 0.0000000000000000000 ) ) ;
#9 = CIRCLE ( 'NONE', #136, 3.000000000000000000 ) ;
#10 = ORIENTED_EDGE ( 'NONE', *, *, #32, .F. ) ;
#11 = CC_DESIGN_PERSON_AND_ORGANIZATION_ASSIGNMENT ( #19, #97, ( #55 ) ) ;
#12 = CYLINDRICAL_SURFACE ( 'NONE', #105, 3.000000000000000000 ) ;
#13 = DIRECTION ( 'NONE',  ( 1.000000000000000000, 0.0000000000000000000, -3.491481338843133355E-15 ) ) ;
#14 = AXIS2_PLACEMENT_3D ( 'NONE', #152, #151, #2 ) ;
#15 = VERTEX_POINT ( 'NONE', #106 ) ;
#16 = DIRECTION ( 'NONE',  ( 3.491481338843133355E-15, -0.0000000000000000000, 1.000000000000000000 ) ) ;
#17 = EDGE_CURVE ( 'NONE', #15, #15, #34, .T. ) ;
#18 = DIRECTION ( 'NONE',  ( -3.491481338843133355E-15, 0.0000000000000000000, -1.000000000000000000 ) ) ;
#19 = PERSON_AND_ORGANIZATION ( #101, #84 ) ;
#20 = ADVANCED_BREP_SHAPE_REPRESENTATION ( '334937', ( #25, #154, #172 ), #143 ) ;
#21 = DIRECTION ( 'NONE',  ( 0.0000000000000000000, 0.0000000000000000000, 1.000000000000000000 ) ) ;
#22 = CALENDAR_DATE ( 2021, 9, 11 ) ;
#23 = AXIS2_PLACEMENT_3D ( 'NONE', #30, #44, #13 ) ;
#24 = ORIENTED_EDGE ( 'NONE', *, *, #197, .F. ) ;
#25 = MANIFOLD_SOLID_BREP ( 'Corps-Déplacer/Copier1[1]', #148 ) ;
#26 = EDGE_LOOP ( 'NONE', ( #10 ) ) ;
#27 = CIRCLE ( 'NONE', #176, 3.000000000000000000 ) ;
#28 = VERTEX_POINT ( 'NONE', #77 ) ;
#29 = CYLINDRICAL_SURFACE ( 'NONE', #23, 3.000000000000000000 ) ;
#30 = CARTESIAN_POINT ( 'NONE',  ( 0.0000000000000000000, 0.0000000000000000000, 0.0000000000000000000 ) ) ;
#31 = DIRECTION ( 'NONE',  ( 1.000000000000000000, 0.0000000000000000000, -4.625929269271485322E-15 ) ) ;
#32 = EDGE_CURVE ( 'NONE', #107, #107, #108, .T. ) ;
#33 = DIRECTION ( 'NONE',  ( 3.491481338843133355E-15, -0.0000000000000000000, 1.000000000000000000 ) ) ;
#34 = CIRCLE ( 'NONE', #93, 3.000000000000000000 ) ;
#35 = PRODUCT_RELATED_PRODUCT_CATEGORY ( 'detail', '', ( #169 ) ) ;
#36 = APPROVAL_DATE_TIME ( #47, #59 ) ;
#37 = DATE_TIME_ROLE ( 'classification_date' ) ;
#38 = LOCAL_TIME ( 7, 59, 47.00000000000000000, #174 ) ;
#39 = DATE_AND_TIME ( #192, #200 ) ;
#40 = DIRECTION ( 'NONE',  ( 1.000000000000000000, 0.0000000000000000000, -3.469446951953614189E-15 ) ) ;
#41 = ORIENTED_EDGE ( 'NONE', *, *, #191, .F. ) ;
#42 = EDGE_LOOP ( 'NONE', ( #177 ) ) ;
#43 = DIRECTION ( 'NONE',  ( -3.491481338843133355E-15, 0.0000000000000000000, -1.000000000000000000 ) ) ;
#44 = DIRECTION ( 'NONE',  ( 3.491481338843133355E-15, -0.0000000000000000000, 1.000000000000000000 ) ) ;
#45 = FACE_OUTER_BOUND ( 'NONE', #115, .T. ) ;
#46 = PERSON_AND_ORGANIZATION_ROLE ( 'creator' ) ;
#47 = DATE_AND_TIME ( #157, #98 ) ;
#48 = CC_DESIGN_APPROVAL ( #5, ( #128 ) ) ;
#49 = SECURITY_CLASSIFICATION_LEVEL ( 'unclassified' ) ;
#50 = PERSON_AND_ORGANIZATION ( #101, #84 ) ;
#51 = PERSON_AND_ORGANIZATION ( #101, #84 ) ;
#52 = DIRECTION ( 'NONE',  ( -1.000000000000000000, 0.0000000000000000000, 3.491481338843133355E-15 ) ) ;
#53 = CC_DESIGN_PERSON_AND_ORGANIZATION_ASSIGNMENT ( #94, #65, ( #55 ) ) ;
#54 = EDGE_LOOP ( 'NONE', ( #163 ) ) ;
#55 = PRODUCT_DEFINITION_FORMATION_WITH_SPECIFIED_SOURCE ( 'ANY', '', #169, .NOT_KNOWN. ) ;
#56 = CARTESIAN_POINT ( 'NONE',  ( 3.142333204958820020E-14, 0.0000000000000000000, 9.000000000000000000 ) ) ;
#57 = CC_DESIGN_DATE_AND_TIME_ASSIGNMENT ( #112, #190, ( #128 ) ) ;
#58 = CIRCLE ( 'NONE', #14, 2.500000000000000000 ) ;
#59 = APPROVAL ( #64, 'UNSPECIFIED' ) ;
#60 = CARTESIAN_POINT ( 'NONE',  ( 1.902857329669507616E-13, 0.0000000000000000000, 54.50000000000000000 ) ) ;
#61 = CC_DESIGN_SECURITY_CLASSIFICATION ( #103, ( #55 ) ) ;
#62 = DIRECTION ( 'NONE',  ( -1.000000000000000000, 0.0000000000000000000, 3.491481338843133355E-15 ) ) ;
#63 =( LENGTH_UNIT ( ) NAMED_UNIT ( * ) SI_UNIT ( .MILLI., .METRE. ) );
#64 = APPROVAL_STATUS ( 'not_yet_approved' ) ;
#65 = PERSON_AND_ORGANIZATION_ROLE ( 'creator' ) ;
#66 = AXIS2_PLACEMENT_3D ( 'NONE', #166, #43, #62 ) ;
#67 = PERSON_AND_ORGANIZATION ( #101, #84 ) ;
#68 = APPROVAL_STATUS ( 'not_yet_approved' ) ;
#69 = EDGE_LOOP ( 'NONE', ( #159 ) ) ;
#70 = APPROVAL_PERSON_ORGANIZATION ( #51, #5, #124 ) ;
#71 = APPROVAL ( #125, 'UNSPECIFIED' ) ;
#72 = ORIENTED_EDGE ( 'NONE', *, *, #197, .T. ) ;
#73 = CARTESIAN_POINT ( 'NONE',  ( 3.142333204958820020E-14, 0.0000000000000000000, 9.000000000000000000 ) ) ;
#74 = APPROVAL_PERSON_ORGANIZATION ( #7, #71, #171 ) ;
#75 = CARTESIAN_POINT ( 'NONE',  ( 3.000000000000031086, 0.0000000000000000000, 8.999999999999989342 ) ) ;
#76 = ADVANCED_FACE ( 'NONE', ( #130 ), #198, .T. ) ;
#77 = CARTESIAN_POINT ( 'NONE',  ( 3.000000000000000000, 0.0000000000000000000, -1.035198158120214942E-14 ) ) ;
#78 = APPLICATION_PROTOCOL_DEFINITION ( 'international standard', 'config_control_design', 1994, #153 ) ;
#79 = AXIS2_PLACEMENT_3D ( 'NONE', #149, #33, #147 ) ;
#80 = APPLICATION_CONTEXT ( 'configuration controlled 3d designs of mechanical parts and assemblies' ) ;
#81 = APPROVAL_DATE_TIME ( #111, #71 ) ;
#82 = PERSON_AND_ORGANIZATION ( #101, #84 ) ;
#83 = CC_DESIGN_DATE_AND_TIME_ASSIGNMENT ( #141, #37, ( #103 ) ) ;
#84 = ORGANIZATION ( 'UNSPECIFIED', 'UNSPECIFIED', '' ) ;
#85 = CARTESIAN_POINT ( 'NONE',  ( 3.142333204958820020E-14, 0.0000000000000000000, 9.000000000000000000 ) ) ;
#86 = DIRECTION ( 'NONE',  ( -1.000000000000000000, 0.0000000000000000000, 2.775557561562891351E-15 ) ) ;
#87 = DIRECTION ( 'NONE',  ( -3.491481338843133355E-15, 0.0000000000000000000, -1.000000000000000000 ) ) ;
#88 = CC_DESIGN_PERSON_AND_ORGANIZATION_ASSIGNMENT ( #139, #187, ( #169 ) ) ;
#89 = AXIS2_PLACEMENT_3D ( 'NONE', #182, #87, #86 ) ;
#90 = FACE_OUTER_BOUND ( 'NONE', #181, .T. ) ;
#91 = CARTESIAN_POINT ( 'NONE',  ( 0.0000000000000000000, 0.0000000000000000000, 0.0000000000000000000 ) ) ;
#92 = ADVANCED_FACE ( 'NONE', ( #114, #102 ), #29, .T. ) ;
#93 = AXIS2_PLACEMENT_3D ( 'NONE', #161, #162, #194 ) ;
#94 = PERSON_AND_ORGANIZATION ( #101, #84 ) ;
#95 = COORDINATED_UNIVERSAL_TIME_OFFSET ( 1, 0, .AHEAD. ) ;
#96 = ADVANCED_FACE ( 'NONE', ( #146, #117 ), #193, .T. ) ;
#97 = PERSON_AND_ORGANIZATION_ROLE ( 'design_supplier' ) ;
#98 = LOCAL_TIME ( 7, 59, 47.00000000000000000, #121 ) ;
#99 = COORDINATED_UNIVERSAL_TIME_OFFSET ( 1, 0, .AHEAD. ) ;
#100 = DESIGN_CONTEXT ( 'detailed design', #80, 'design' ) ;
#101 = PERSON ( 'UNSPECIFIED', 'UNSPECIFIED', 'UNSPECIFIED', ('UNSPECIFIED'), ('UNSPECIFIED'), ('UNSPECIFIED') ) ;
#102 = FACE_OUTER_BOUND ( 'NONE', #126, .T. ) ;
#103 = SECURITY_CLASSIFICATION ( '', '', #49 ) ;
#104 = EDGE_LOOP ( 'NONE', ( #72 ) ) ;
#105 = AXIS2_PLACEMENT_3D ( 'NONE', #91, #133, #185 ) ;
#106 = CARTESIAN_POINT ( 'NONE',  ( 3.000000000000031086, 0.0000000000000000000, 8.999999999999989342 ) ) ;
#107 = VERTEX_POINT ( 'NONE', #75 ) ;
#108 = CIRCLE ( 'NONE', #160, 3.000000000000000000 ) ;
#109 = FACE_OUTER_BOUND ( 'NONE', #178, .T. ) ;
#110 = SHAPE_DEFINITION_REPRESENTATION ( #186, #20 ) ;
#111 = DATE_AND_TIME ( #22, #168 ) ;
#112 = DATE_AND_TIME ( #156, #140 ) ;
#113 = CLOSED_SHELL ( 'NONE', ( #92, #201, #150 ) ) ;
#114 = FACE_OUTER_BOUND ( 'NONE', #42, .T. ) ;
#115 = EDGE_LOOP ( 'NONE', ( #196 ) ) ;
#116 = DIRECTION ( 'NONE',  ( -3.491481338843133355E-15, 0.0000000000000000000, -1.000000000000000000 ) ) ;
#117 = FACE_BOUND ( 'NONE', #129, .T. ) ;
#118 = DIRECTION ( 'NONE',  ( 1.000000000000000000, 0.0000000000000000000, -3.491481338843133355E-15 ) ) ;
#119 = CARTESIAN_POINT ( 'NONE',  ( 2.500000000000192291, 0.0000000000000000000, 54.99999999999999289 ) ) ;
#120 = DIRECTION ( 'NONE',  ( -1.000000000000000000, 0.0000000000000000000, 3.491481338843133355E-15 ) ) ;
#121 = COORDINATED_UNIVERSAL_TIME_OFFSET ( 1, 0, .AHEAD. ) ;
#122 = AXIS2_PLACEMENT_3D ( 'NONE', #56, #116, #52 ) ;
#123 = APPROVAL_DATE_TIME ( #39, #5 ) ;
#124 = APPROVAL_ROLE ( '' ) ;
#125 = APPROVAL_STATUS ( 'not_yet_approved' ) ;
#126 = EDGE_LOOP ( 'NONE', ( #179 ) ) ;
#127 = ORIENTED_EDGE ( 'NONE', *, *, #32, .T. ) ;
#128 = PRODUCT_DEFINITION ( 'UNKNOWN', '', #55, #100 ) ;
#129 = EDGE_LOOP ( 'NONE', ( #41 ) ) ;
#130 = FACE_OUTER_BOUND ( 'NONE', #26, .T. ) ;
#131 = CARTESIAN_POINT ( 'NONE',  ( 3.000000000000190514, 0.0000000000000000000, 54.49999999999998579 ) ) ;
#132 = AXIS2_PLACEMENT_3D ( 'NONE', #73, #18, #120 ) ;
#133 = DIRECTION ( 'NONE',  ( 3.491481338843133355E-15, -0.0000000000000000000, 1.000000000000000000 ) ) ;
#134 = VERTEX_POINT ( 'NONE', #119 ) ;
#135 = PLANE ( 'NONE',  #79 ) ;
#136 = AXIS2_PLACEMENT_3D ( 'NONE', #60, #16, #31 ) ;
#137 = PLANE ( 'NONE',  #132 ) ;
#138 = PERSON_AND_ORGANIZATION_ROLE ( 'classification_officer' ) ;
#139 = PERSON_AND_ORGANIZATION ( #101, #84 ) ;
#140 = LOCAL_TIME ( 7, 59, 47.00000000000000000, #95 ) ;
#141 = DATE_AND_TIME ( #155, #38 ) ;
#142 = CC_DESIGN_PERSON_AND_ORGANIZATION_ASSIGNMENT ( #50, #46, ( #128 ) ) ;
#143 =( GEOMETRIC_REPRESENTATION_CONTEXT ( 3 ) GLOBAL_UNCERTAINTY_ASSIGNED_CONTEXT ( ( #173 ) ) GLOBAL_UNIT_ASSIGNED_CONTEXT ( ( #63, #199, #165 ) ) REPRESENTATION_CONTEXT ( 'NONE', 'WORKASPACE' ) );
#144 = DIRECTION ( 'NONE',  ( 3.491481338843133355E-15, -0.0000000000000000000, 1.000000000000000000 ) ) ;
#145 = CC_DESIGN_APPROVAL ( #59, ( #103 ) ) ;
#146 = FACE_OUTER_BOUND ( 'NONE', #104, .T. ) ;
#147 = DIRECTION ( 'NONE',  ( 1.000000000000000000, 0.0000000000000000000, -3.491481338843133355E-15 ) ) ;
#148 = CLOSED_SHELL ( 'NONE', ( #76, #158, #96, #180 ) ) ;
#149 = CARTESIAN_POINT ( 'NONE',  ( 1.920314736363723472E-13, 0.0000000000000000000, 55.00000000000000000 ) ) ;
#150 = ADVANCED_FACE ( 'NONE', ( #170 ), #164, .T. ) ;
#151 = DIRECTION ( 'NONE',  ( 3.491481338843133355E-15, -0.0000000000000000000, 1.000000000000000000 ) ) ;
#152 = CARTESIAN_POINT ( 'NONE',  ( 1.920314736363723472E-13, 0.0000000000000000000, 55.00000000000000000 ) ) ;
#153 = APPLICATION_CONTEXT ( 'configuration controlled 3d designs of mechanical parts and assemblies' ) ;
#154 = MANIFOLD_SOLID_BREP ( 'Corps-Déplacer/Copier1[2]', #113 ) ;
#155 = CALENDAR_DATE ( 2021, 9, 11 ) ;
#156 = CALENDAR_DATE ( 2021, 9, 11 ) ;
#157 = CALENDAR_DATE ( 2021, 9, 11 ) ;
#158 = ADVANCED_FACE ( 'NONE', ( #90, #109 ), #12, .T. ) ;
#159 = ORIENTED_EDGE ( 'NONE', *, *, #17, .T. ) ;
#160 = AXIS2_PLACEMENT_3D ( 'NONE', #85, #144, #40 ) ;
#161 = CARTESIAN_POINT ( 'NONE',  ( 3.142333204958820020E-14, 0.0000000000000000000, 9.000000000000000000 ) ) ;
#162 = DIRECTION ( 'NONE',  ( 3.491481338843133355E-15, -0.0000000000000000000, 1.000000000000000000 ) ) ;
#163 = ORIENTED_EDGE ( 'NONE', *, *, #183, .F. ) ;
#164 = PLANE ( 'NONE',  #66 ) ;
#165 =( NAMED_UNIT ( * ) SI_UNIT ( $, .STERADIAN. ) SOLID_ANGLE_UNIT ( ) );
#166 = CARTESIAN_POINT ( 'NONE',  ( 2.137876538271898504E-31, 0.0000000000000000000, 6.123121766362532060E-17 ) ) ;
#167 = CC_DESIGN_PERSON_AND_ORGANIZATION_ASSIGNMENT ( #82, #138, ( #103 ) ) ;
#168 = LOCAL_TIME ( 7, 59, 47.00000000000000000, #99 ) ;
#169 = PRODUCT ( '334937', '334937', '', ( #175 ) ) ;
#170 = FACE_OUTER_BOUND ( 'NONE', #54, .T. ) ;
#171 = APPROVAL_ROLE ( '' ) ;
#172 = AXIS2_PLACEMENT_3D ( 'NONE', #8, #21, #3 ) ;
#173 = UNCERTAINTY_MEASURE_WITH_UNIT (LENGTH_MEASURE( 1.000000000000000082E-05 ), #63, 'distance_accuracy_value', 'NONE');
#174 = COORDINATED_UNIVERSAL_TIME_OFFSET ( 1, 0, .AHEAD. ) ;
#175 = MECHANICAL_CONTEXT ( 'NONE', #153, 'mechanical' ) ;
#176 = AXIS2_PLACEMENT_3D ( 'NONE', #202, #203, #118 ) ;
#177 = ORIENTED_EDGE ( 'NONE', *, *, #183, .T. ) ;
#178 = EDGE_LOOP ( 'NONE', ( #24 ) ) ;
#179 = ORIENTED_EDGE ( 'NONE', *, *, #17, .F. ) ;
#180 = ADVANCED_FACE ( 'NONE', ( #45 ), #135, .T. ) ;
#181 = EDGE_LOOP ( 'NONE', ( #127 ) ) ;
#182 = CARTESIAN_POINT ( 'NONE',  ( 1.920314736363723472E-13, 0.0000000000000000000, 55.00000000000000000 ) ) ;
#183 = EDGE_CURVE ( 'NONE', #28, #28, #27, .T. ) ;
#184 = VERTEX_POINT ( 'NONE', #131 ) ;
#185 = DIRECTION ( 'NONE',  ( 1.000000000000000000, 0.0000000000000000000, -3.491481338843133355E-15 ) ) ;
#186 = PRODUCT_DEFINITION_SHAPE ( 'NONE', 'NONE',  #128 ) ;
#187 = PERSON_AND_ORGANIZATION_ROLE ( 'design_owner' ) ;
#188 = COORDINATED_UNIVERSAL_TIME_OFFSET ( 1, 0, .AHEAD. ) ;
#189 = CC_DESIGN_APPROVAL ( #71, ( #55 ) ) ;
#190 = DATE_TIME_ROLE ( 'creation_date' ) ;
#191 = EDGE_CURVE ( 'NONE', #134, #134, #58, .T. ) ;
#192 = CALENDAR_DATE ( 2021, 9, 11 ) ;
#193 = CONICAL_SURFACE ( 'NONE', #89, 2.500000000000000000, 0.7853981633974479459 ) ;
#194 = DIRECTION ( 'NONE',  ( 1.000000000000000000, 0.0000000000000000000, -3.469446951953614189E-15 ) ) ;
#195 = APPROVAL_PERSON_ORGANIZATION ( #67, #59, #6 ) ;
#196 = ORIENTED_EDGE ( 'NONE', *, *, #191, .T. ) ;
#197 = EDGE_CURVE ( 'NONE', #184, #184, #9, .T. ) ;
#198 = PLANE ( 'NONE',  #122 ) ;
#199 =( NAMED_UNIT ( * ) PLANE_ANGLE_UNIT ( ) SI_UNIT ( $, .RADIAN. ) );
#200 = LOCAL_TIME ( 7, 59, 47.00000000000000000, #188 ) ;
#201 = ADVANCED_FACE ( 'NONE', ( #1 ), #137, .F. ) ;
#202 = CARTESIAN_POINT ( 'NONE',  ( 4.275753076543797008E-31, 0.0000000000000000000, 1.224624353272506412E-16 ) ) ;
#203 = DIRECTION ( 'NONE',  ( 3.491481338843133355E-15, -0.0000000000000000000, 1.000000000000000000 ) ) ;
ENDSEC;
END-ISO-10303-21;
