ISO-10303-21;
HEADER;
FILE_DESCRIPTION (( 'STEP AP203' ),
    '1' );
FILE_NAME ('334936.step',
    '2021-11-09T06:59:46',
    ( '' ),
    ( '' ),
    'SwSTEP 2.0',
    'SolidWorks 2019',
    '' );
FILE_SCHEMA (( 'CONFIG_CONTROL_DESIGN' ));
ENDSEC;

DATA;
#1 = DATE_TIME_ROLE ( 'classification_date' ) ;
#2 = TOROIDAL_SURFACE ( 'NONE', #140, 4.500000000000000000, 2.000000000000000000 ) ;
#3 = DIRECTION ( 'NONE',  ( 3.491481338843133355E-15, -0.0000000000000000000, 1.000000000000000000 ) ) ;
#4 = AXIS2_PLACEMENT_3D ( 'NONE', #166, #229, #176 ) ;
#5 = ADVANCED_FACE ( 'NONE', ( #148, #154 ), #47, .T. ) ;
#6 = CYLINDRICAL_SURFACE ( 'NONE', #192, 2.499999999999999556 ) ;
#7 = DIRECTION ( 'NONE',  ( 3.491481338843133355E-15, -0.0000000000000000000, 1.000000000000000000 ) ) ;
#8 = DIRECTION ( 'NONE',  ( 1.000000000000000000, 0.0000000000000000000, -3.491481338843133355E-15 ) ) ;
#9 = AXIS2_PLACEMENT_3D ( 'NONE', #87, #162, #54 ) ;
#10 = CARTESIAN_POINT ( 'NONE',  ( 3.000000000000033751, 0.0000000000000000000, 9.629330398959263349 ) ) ;
#11 = VERTEX_POINT ( 'NONE', #94 ) ;
#12 = EDGE_LOOP ( 'NONE', ( #113 ) ) ;
#13 = ADVANCED_FACE ( 'NONE', ( #142 ), #118, .T. ) ;
#14 = LOCAL_TIME ( 7, 59, 46.00000000000000000, #235 ) ;
#15 = PERSON_AND_ORGANIZATION_ROLE ( 'design_owner' ) ;
#16 = ORIENTED_EDGE ( 'NONE', *, *, #20, .T. ) ;
#17 = DATE_AND_TIME ( #58, #62 ) ;
#18 = PERSON_AND_ORGANIZATION ( #210, #197 ) ;
#19 = DIRECTION ( 'NONE',  ( 3.491481338843133355E-15, -0.0000000000000000000, 1.000000000000000000 ) ) ;
#20 = EDGE_CURVE ( 'NONE', #206, #206, #108, .T. ) ;
#21 = DIRECTION ( 'NONE',  ( -3.491481338843133355E-15, 0.0000000000000000000, -1.000000000000000000 ) ) ;
#22 = ADVANCED_FACE ( 'NONE', ( #243, #216 ), #2, .F. ) ;
#23 = MANIFOLD_SOLID_BREP ( 'Corps-Déplacer/Copier1[1]', #37 ) ;
#24 = CARTESIAN_POINT ( 'NONE',  ( 2.618611004132350016E-14, 0.0000000000000000000, 7.500000000000000000 ) ) ;
#25 = AXIS2_PLACEMENT_3D ( 'NONE', #24, #64, #180 ) ;
#26 = DIRECTION ( 'NONE',  ( 3.491481338843133355E-15, -0.0000000000000000000, 1.000000000000000000 ) ) ;
#27 = CARTESIAN_POINT ( 'NONE',  ( 2.618611004132350016E-14, 0.0000000000000000000, 7.500000000000000000 ) ) ;
#28 = ADVANCED_FACE ( 'NONE', ( #219 ), #157, .T. ) ;
#29 = DATE_TIME_ROLE ( 'creation_date' ) ;
#30 = CIRCLE ( 'NONE', #200, 3.000000000000000000 ) ;
#31 = VERTEX_POINT ( 'NONE', #147 ) ;
#32 = MECHANICAL_CONTEXT ( 'NONE', #155, 'mechanical' ) ;
#33 = EDGE_LOOP ( 'NONE', ( #93 ) ) ;
#34 = AXIS2_PLACEMENT_3D ( 'NONE', #61, #122, #88 ) ;
#35 = COORDINATED_UNIVERSAL_TIME_OFFSET ( 1, 0, .AHEAD. ) ;
#36 = ORIENTED_EDGE ( 'NONE', *, *, #218, .F. ) ;
#37 = CLOSED_SHELL ( 'NONE', ( #5, #60, #13, #22, #66, #160 ) ) ;
#38 = DATE_AND_TIME ( #215, #46 ) ;
#39 = ORIENTED_EDGE ( 'NONE', *, *, #230, .T. ) ;
#40 = PRODUCT_RELATED_PRODUCT_CATEGORY ( 'detail', '', ( #41 ) ) ;
#41 = PRODUCT ( '334936', '334936', '', ( #32 ) ) ;
#42 = AXIS2_PLACEMENT_3D ( 'NONE', #84, #26, #181 ) ;
#43 = DIRECTION ( 'NONE',  ( 3.491481338843133355E-15, -0.0000000000000000000, 1.000000000000000000 ) ) ;
#44 = DIRECTION ( 'NONE',  ( 3.491481338843133355E-15, -0.0000000000000000000, 1.000000000000000000 ) ) ;
#45 = DIRECTION ( 'NONE',  ( 1.000000000000000000, 0.0000000000000000000, -2.775557561562891351E-15 ) ) ;
#46 = LOCAL_TIME ( 7, 59, 46.00000000000000000, #57 ) ;
#47 = CYLINDRICAL_SURFACE ( 'NONE', #151, 3.000000000000000000 ) ;
#48 = CARTESIAN_POINT ( 'NONE',  ( 1.920314736363723472E-13, 0.0000000000000000000, 55.00000000000000000 ) ) ;
#49 = APPROVAL_ROLE ( '' ) ;
#50 = AXIS2_PLACEMENT_3D ( 'NONE', #48, #19, #45 ) ;
#51 = CC_DESIGN_PERSON_AND_ORGANIZATION_ASSIGNMENT ( #115, #116, ( #228 ) ) ;
#52 = VERTEX_POINT ( 'NONE', #149 ) ;
#53 = EDGE_LOOP ( 'NONE', ( #97 ) ) ;
#54 = DIRECTION ( 'NONE',  ( 1.000000000000000000, 0.0000000000000000000, -4.625929269271485322E-15 ) ) ;
#55 = AXIS2_PLACEMENT_3D ( 'NONE', #178, #3, #199 ) ;
#56 = SHAPE_DEFINITION_REPRESENTATION ( #85, #79 ) ;
#57 = COORDINATED_UNIVERSAL_TIME_OFFSET ( 1, 0, .AHEAD. ) ;
#58 = CALENDAR_DATE ( 2021, 9, 11 ) ;
#59 = CIRCLE ( 'NONE', #55, 2.568148347421859157 ) ;
#60 = ADVANCED_FACE ( 'NONE', ( #139, #104 ), #99, .T. ) ;
#61 = CARTESIAN_POINT ( 'NONE',  ( 2.137876538271898504E-31, 0.0000000000000000000, 6.123121766362532060E-17 ) ) ;
#62 = LOCAL_TIME ( 7, 59, 46.00000000000000000, #196 ) ;
#63 = DIRECTION ( 'NONE',  ( -3.491481338843133355E-15, 0.0000000000000000000, -1.000000000000000000 ) ) ;
#64 = DIRECTION ( 'NONE',  ( 3.491481338843133355E-15, -0.0000000000000000000, 1.000000000000000000 ) ) ;
#65 = CARTESIAN_POINT ( 'NONE',  ( 3.362062739352121186E-14, 0.0000000000000000000, 9.629330398959274007 ) ) ;
#66 = ADVANCED_FACE ( 'NONE', ( #195, #217 ), #170, .T. ) ;
#67 = DIRECTION ( 'NONE',  ( 1.000000000000000000, 0.0000000000000000000, -3.469446951953614189E-15 ) ) ;
#68 = DATE_AND_TIME ( #70, #14 ) ;
#69 = APPROVAL ( #168, 'UNSPECIFIED' ) ;
#70 = CALENDAR_DATE ( 2021, 9, 11 ) ;
#71 = CARTESIAN_POINT ( 'NONE',  ( 2.499999999999999556, 0.0000000000000000000, -8.606240911780581169E-15 ) ) ;
#72 = EDGE_LOOP ( 'NONE', ( #77 ) ) ;
#73 = CARTESIAN_POINT ( 'NONE',  ( 3.362062739352121186E-14, 0.0000000000000000000, 9.629330398959274007 ) ) ;
#74 = EDGE_LOOP ( 'NONE', ( #39 ) ) ;
#75 = PERSON_AND_ORGANIZATION ( #210, #197 ) ;
#76 = APPROVAL ( #193, 'UNSPECIFIED' ) ;
#77 = ORIENTED_EDGE ( 'NONE', *, *, #120, .F. ) ;
#78 =( GEOMETRIC_REPRESENTATION_CONTEXT ( 3 ) GLOBAL_UNCERTAINTY_ASSIGNED_CONTEXT ( ( #125 ) ) GLOBAL_UNIT_ASSIGNED_CONTEXT ( ( #222, #130, #128 ) ) REPRESENTATION_CONTEXT ( 'NONE', 'WORKASPACE' ) );
#79 = ADVANCED_BREP_SHAPE_REPRESENTATION ( '334936', ( #23, #187, #90 ), #78 ) ;
#80 = ORIENTED_EDGE ( 'NONE', *, *, #114, .T. ) ;
#81 = APPROVAL_DATE_TIME ( #38, #76 ) ;
#82 = EDGE_LOOP ( 'NONE', ( #132 ) ) ;
#83 = CC_DESIGN_PERSON_AND_ORGANIZATION_ASSIGNMENT ( #144, #15, ( #41 ) ) ;
#84 = CARTESIAN_POINT ( 'NONE',  ( 4.275753076543797008E-31, 0.0000000000000000000, 1.224624353272506412E-16 ) ) ;
#85 = PRODUCT_DEFINITION_SHAPE ( 'NONE', 'NONE',  #146 ) ;
#86 = FACE_OUTER_BOUND ( 'NONE', #129, .T. ) ;
#87 = CARTESIAN_POINT ( 'NONE',  ( 1.902857329669507616E-13, 0.0000000000000000000, 54.50000000000000000 ) ) ;
#88 = DIRECTION ( 'NONE',  ( -1.000000000000000000, 0.0000000000000000000, 3.491481338843133355E-15 ) ) ;
#89 = CARTESIAN_POINT ( 'NONE',  ( 0.0000000000000000000, 0.0000000000000000000, 0.0000000000000000000 ) ) ;
#90 = AXIS2_PLACEMENT_3D ( 'NONE', #171, #174, #91 ) ;
#91 = DIRECTION ( 'NONE',  ( 1.000000000000000000, 0.0000000000000000000, 0.0000000000000000000 ) ) ;
#92 = LOCAL_TIME ( 7, 59, 46.00000000000000000, #124 ) ;
#93 = ORIENTED_EDGE ( 'NONE', *, *, #20, .F. ) ;
#94 = CARTESIAN_POINT ( 'NONE',  ( 3.000000000000190514, 0.0000000000000000000, 54.49999999999998579 ) ) ;
#95 = AXIS2_PLACEMENT_3D ( 'NONE', #65, #44, #67 ) ;
#96 = ADVANCED_FACE ( 'NONE', ( #141 ), #135, .F. ) ;
#97 = ORIENTED_EDGE ( 'NONE', *, *, #218, .T. ) ;
#98 = FACE_OUTER_BOUND ( 'NONE', #82, .T. ) ;
#99 = CONICAL_SURFACE ( 'NONE', #183, 2.500000000000000000, 0.7853981633974479459 ) ;
#100 = CC_DESIGN_PERSON_AND_ORGANIZATION_ASSIGNMENT ( #136, #177, ( #158 ) ) ;
#101 = DIRECTION ( 'NONE',  ( -1.000000000000000000, 0.0000000000000000000, 3.491481338843133355E-15 ) ) ;
#102 = DIRECTION ( 'NONE',  ( 1.000000000000000000, 0.0000000000000000000, -3.469446951953614978E-15 ) ) ;
#103 = CC_DESIGN_PERSON_AND_ORGANIZATION_ASSIGNMENT ( #150, #226, ( #146 ) ) ;
#104 = FACE_BOUND ( 'NONE', #72, .T. ) ;
#105 = DIRECTION ( 'NONE',  ( -3.491481338843133355E-15, 0.0000000000000000000, -1.000000000000000000 ) ) ;
#106 = PERSON_AND_ORGANIZATION ( #210, #197 ) ;
#107 = CARTESIAN_POINT ( 'NONE',  ( 2.500000000000025757, 0.0000000000000000000, 7.499999999999991118 ) ) ;
#108 = CIRCLE ( 'NONE', #42, 2.499999999999999556 ) ;
#109 = ORIENTED_EDGE ( 'NONE', *, *, #120, .T. ) ;
#110 = CARTESIAN_POINT ( 'NONE',  ( 2.500000000000025757, 0.0000000000000000000, 7.499999999999991118 ) ) ;
#111 = EDGE_LOOP ( 'NONE', ( #80 ) ) ;
#112 = APPROVAL_ROLE ( '' ) ;
#113 = ORIENTED_EDGE ( 'NONE', *, *, #205, .F. ) ;
#114 = EDGE_CURVE ( 'NONE', #207, #207, #225, .T. ) ;
#115 = PERSON_AND_ORGANIZATION ( #210, #197 ) ;
#116 = PERSON_AND_ORGANIZATION_ROLE ( 'design_supplier' ) ;
#117 = APPROVAL_PERSON_ORGANIZATION ( #75, #211, #49 ) ;
#118 = PLANE ( 'NONE',  #4 ) ;
#119 = CARTESIAN_POINT ( 'NONE',  ( 2.618611004132350016E-14, 0.0000000000000000000, 7.500000000000000000 ) ) ;
#120 = EDGE_CURVE ( 'NONE', #31, #31, #165, .T. ) ;
#121 = APPROVAL_PERSON_ORGANIZATION ( #106, #69, #236 ) ;
#122 = DIRECTION ( 'NONE',  ( -3.491481338843133355E-15, 0.0000000000000000000, -1.000000000000000000 ) ) ;
#123 = DIRECTION ( 'NONE',  ( 3.491481338843133355E-15, -0.0000000000000000000, 1.000000000000000000 ) ) ;
#124 = COORDINATED_UNIVERSAL_TIME_OFFSET ( 1, 0, .AHEAD. ) ;
#125 = UNCERTAINTY_MEASURE_WITH_UNIT (LENGTH_MEASURE( 1.000000000000000082E-05 ), #222, 'distance_accuracy_value', 'NONE');
#126 = APPROVAL_DATE_TIME ( #241, #211 ) ;
#127 = VERTEX_POINT ( 'NONE', #10 ) ;
#128 =( NAMED_UNIT ( * ) SI_UNIT ( $, .STERADIAN. ) SOLID_ANGLE_UNIT ( ) );
#129 = EDGE_LOOP ( 'NONE', ( #16 ) ) ;
#130 =( NAMED_UNIT ( * ) PLANE_ANGLE_UNIT ( ) SI_UNIT ( $, .RADIAN. ) );
#131 = AXIS2_PLACEMENT_3D ( 'NONE', #27, #105, #214 ) ;
#132 = ORIENTED_EDGE ( 'NONE', *, *, #114, .F. ) ;
#133 = PERSON_AND_ORGANIZATION ( #210, #197 ) ;
#134 = CLOSED_SHELL ( 'NONE', ( #28, #194, #96 ) ) ;
#135 = PLANE ( 'NONE',  #131 ) ;
#136 = PERSON_AND_ORGANIZATION ( #210, #197 ) ;
#137 = CC_DESIGN_APPROVAL ( #69, ( #228 ) ) ;
#138 = DIRECTION ( 'NONE',  ( 1.000000000000000000, 0.0000000000000000000, -3.491481338843133355E-15 ) ) ;
#139 = FACE_OUTER_BOUND ( 'NONE', #53, .T. ) ;
#140 = AXIS2_PLACEMENT_3D ( 'NONE', #234, #7, #201 ) ;
#141 = FACE_OUTER_BOUND ( 'NONE', #224, .T. ) ;
#142 = FACE_OUTER_BOUND ( 'NONE', #209, .T. ) ;
#143 = CC_DESIGN_DATE_AND_TIME_ASSIGNMENT ( #221, #29, ( #146 ) ) ;
#144 = PERSON_AND_ORGANIZATION ( #210, #197 ) ;
#145 = APPLICATION_PROTOCOL_DEFINITION ( 'international standard', 'config_control_design', 1994, #155 ) ;
#146 = PRODUCT_DEFINITION ( 'UNKNOWN', '', #228, #182 ) ;
#147 = CARTESIAN_POINT ( 'NONE',  ( 2.500000000000192291, 0.0000000000000000000, 54.99999999999999289 ) ) ;
#148 = FACE_OUTER_BOUND ( 'NONE', #191, .T. ) ;
#149 = CARTESIAN_POINT ( 'NONE',  ( 2.568148347421887578, 0.0000000000000000000, 8.017638090205018386 ) ) ;
#150 = PERSON_AND_ORGANIZATION ( #210, #197 ) ;
#151 = AXIS2_PLACEMENT_3D ( 'NONE', #89, #123, #8 ) ;
#152 = EDGE_LOOP ( 'NONE', ( #175 ) ) ;
#153 = APPROVAL_DATE_TIME ( #68, #69 ) ;
#154 = FACE_OUTER_BOUND ( 'NONE', #74, .T. ) ;
#155 = APPLICATION_CONTEXT ( 'configuration controlled 3d designs of mechanical parts and assemblies' ) ;
#156 = EDGE_LOOP ( 'NONE', ( #213 ) ) ;
#157 = PLANE ( 'NONE',  #34 ) ;
#158 = SECURITY_CLASSIFICATION ( '', '', #159 ) ;
#159 = SECURITY_CLASSIFICATION_LEVEL ( 'unclassified' ) ;
#160 = ADVANCED_FACE ( 'NONE', ( #98 ), #198, .T. ) ;
#161 = CARTESIAN_POINT ( 'NONE',  ( 0.0000000000000000000, 0.0000000000000000000, 0.0000000000000000000 ) ) ;
#162 = DIRECTION ( 'NONE',  ( 3.491481338843133355E-15, -0.0000000000000000000, 1.000000000000000000 ) ) ;
#163 = APPLICATION_CONTEXT ( 'configuration controlled 3d designs of mechanical parts and assemblies' ) ;
#164 = DIRECTION ( 'NONE',  ( -1.000000000000000000, 0.0000000000000000000, 2.775557561562891351E-15 ) ) ;
#165 = CIRCLE ( 'NONE', #50, 2.500000000000000000 ) ;
#166 = CARTESIAN_POINT ( 'NONE',  ( 1.920314736363723472E-13, 0.0000000000000000000, 55.00000000000000000 ) ) ;
#167 = CC_DESIGN_DATE_AND_TIME_ASSIGNMENT ( #17, #1, ( #158 ) ) ;
#168 = APPROVAL_STATUS ( 'not_yet_approved' ) ;
#169 = CALENDAR_DATE ( 2021, 9, 11 ) ;
#170 = CONICAL_SURFACE ( 'NONE', #95, 3.000000000000000000, 0.2617993877991428020 ) ;
#171 = CARTESIAN_POINT ( 'NONE',  ( 0.0000000000000000000, 0.0000000000000000000, 0.0000000000000000000 ) ) ;
#172 = APPROVAL_STATUS ( 'not_yet_approved' ) ;
#173 = ORIENTED_EDGE ( 'NONE', *, *, #205, .T. ) ;
#174 = DIRECTION ( 'NONE',  ( 0.0000000000000000000, 0.0000000000000000000, 1.000000000000000000 ) ) ;
#175 = ORIENTED_EDGE ( 'NONE', *, *, #230, .F. ) ;
#176 = DIRECTION ( 'NONE',  ( 1.000000000000000000, 0.0000000000000000000, -3.491481338843133355E-15 ) ) ;
#177 = PERSON_AND_ORGANIZATION_ROLE ( 'classification_officer' ) ;
#178 = CARTESIAN_POINT ( 'NONE',  ( 2.799343377354874550E-14, 0.0000000000000000000, 8.017638090205025492 ) ) ;
#179 = AXIS2_PLACEMENT_3D ( 'NONE', #119, #21, #101 ) ;
#180 = DIRECTION ( 'NONE',  ( 1.000000000000000000, 0.0000000000000000000, -3.469446951953614978E-15 ) ) ;
#181 = DIRECTION ( 'NONE',  ( 1.000000000000000000, 0.0000000000000000000, -3.491481338843133355E-15 ) ) ;
#182 = DESIGN_CONTEXT ( 'detailed design', #163, 'design' ) ;
#183 = AXIS2_PLACEMENT_3D ( 'NONE', #202, #63, #164 ) ;
#184 = DIRECTION ( 'NONE',  ( 1.000000000000000000, 0.0000000000000000000, -3.469446951953614189E-15 ) ) ;
#185 = CC_DESIGN_APPROVAL ( #76, ( #158 ) ) ;
#186 = DIRECTION ( 'NONE',  ( 3.491481338843133355E-15, -0.0000000000000000000, 1.000000000000000000 ) ) ;
#187 = MANIFOLD_SOLID_BREP ( 'Corps-Déplacer/Copier1[2]', #134 ) ;
#188 = ORIENTED_EDGE ( 'NONE', *, *, #189, .T. ) ;
#189 = EDGE_CURVE ( 'NONE', #52, #52, #59, .T. ) ;
#190 = PERSON_AND_ORGANIZATION_ROLE ( 'creator' ) ;
#191 = EDGE_LOOP ( 'NONE', ( #36 ) ) ;
#192 = AXIS2_PLACEMENT_3D ( 'NONE', #161, #232, #138 ) ;
#193 = APPROVAL_STATUS ( 'not_yet_approved' ) ;
#194 = ADVANCED_FACE ( 'NONE', ( #86, #233 ), #6, .T. ) ;
#195 = FACE_BOUND ( 'NONE', #240, .T. ) ;
#196 = COORDINATED_UNIVERSAL_TIME_OFFSET ( 1, 0, .AHEAD. ) ;
#197 = ORGANIZATION ( 'UNSPECIFIED', 'UNSPECIFIED', '' ) ;
#198 = PLANE ( 'NONE',  #179 ) ;
#199 = DIRECTION ( 'NONE',  ( 1.000000000000000000, 0.0000000000000000000, -3.377381757791134389E-15 ) ) ;
#200 = AXIS2_PLACEMENT_3D ( 'NONE', #73, #186, #184 ) ;
#201 = DIRECTION ( 'NONE',  ( 1.000000000000000000, 0.0000000000000000000, -3.491481338843133355E-15 ) ) ;
#202 = CARTESIAN_POINT ( 'NONE',  ( 1.920314736363723472E-13, 0.0000000000000000000, 55.00000000000000000 ) ) ;
#203 = CALENDAR_DATE ( 2021, 9, 11 ) ;
#204 = APPROVAL_PERSON_ORGANIZATION ( #133, #76, #112 ) ;
#205 = EDGE_CURVE ( 'NONE', #223, #223, #212, .T. ) ;
#206 = VERTEX_POINT ( 'NONE', #71 ) ;
#207 = VERTEX_POINT ( 'NONE', #107 ) ;
#208 = CC_DESIGN_SECURITY_CLASSIFICATION ( #158, ( #228 ) ) ;
#209 = EDGE_LOOP ( 'NONE', ( #109 ) ) ;
#210 = PERSON ( 'UNSPECIFIED', 'UNSPECIFIED', 'UNSPECIFIED', ('UNSPECIFIED'), ('UNSPECIFIED'), ('UNSPECIFIED') ) ;
#211 = APPROVAL ( #172, 'UNSPECIFIED' ) ;
#212 = CIRCLE ( 'NONE', #25, 2.499999999999999556 ) ;
#213 = ORIENTED_EDGE ( 'NONE', *, *, #189, .F. ) ;
#214 = DIRECTION ( 'NONE',  ( -1.000000000000000000, 0.0000000000000000000, 3.491481338843133355E-15 ) ) ;
#215 = CALENDAR_DATE ( 2021, 9, 11 ) ;
#216 = FACE_OUTER_BOUND ( 'NONE', #156, .T. ) ;
#217 = FACE_OUTER_BOUND ( 'NONE', #152, .T. ) ;
#218 = EDGE_CURVE ( 'NONE', #11, #11, #231, .T. ) ;
#219 = FACE_OUTER_BOUND ( 'NONE', #33, .T. ) ;
#220 = CARTESIAN_POINT ( 'NONE',  ( 2.618611004132350016E-14, 0.0000000000000000000, 7.500000000000000000 ) ) ;
#221 = DATE_AND_TIME ( #203, #92 ) ;
#222 =( LENGTH_UNIT ( ) NAMED_UNIT ( * ) SI_UNIT ( .MILLI., .METRE. ) );
#223 = VERTEX_POINT ( 'NONE', #110 ) ;
#224 = EDGE_LOOP ( 'NONE', ( #173 ) ) ;
#225 = CIRCLE ( 'NONE', #238, 2.499999999999999556 ) ;
#226 = PERSON_AND_ORGANIZATION_ROLE ( 'creator' ) ;
#227 = CC_DESIGN_PERSON_AND_ORGANIZATION_ASSIGNMENT ( #18, #190, ( #228 ) ) ;
#228 = PRODUCT_DEFINITION_FORMATION_WITH_SPECIFIED_SOURCE ( 'ANY', '', #41, .NOT_KNOWN. ) ;
#229 = DIRECTION ( 'NONE',  ( 3.491481338843133355E-15, -0.0000000000000000000, 1.000000000000000000 ) ) ;
#230 = EDGE_CURVE ( 'NONE', #127, #127, #30, .T. ) ;
#231 = CIRCLE ( 'NONE', #9, 3.000000000000000000 ) ;
#232 = DIRECTION ( 'NONE',  ( 3.491481338843133355E-15, -0.0000000000000000000, 1.000000000000000000 ) ) ;
#233 = FACE_OUTER_BOUND ( 'NONE', #12, .T. ) ;
#234 = CARTESIAN_POINT ( 'NONE',  ( 2.618611004132350016E-14, 0.0000000000000000000, 7.500000000000000000 ) ) ;
#235 = COORDINATED_UNIVERSAL_TIME_OFFSET ( 1, 0, .AHEAD. ) ;
#236 = APPROVAL_ROLE ( '' ) ;
#237 = CC_DESIGN_APPROVAL ( #211, ( #146 ) ) ;
#238 = AXIS2_PLACEMENT_3D ( 'NONE', #220, #43, #102 ) ;
#239 = APPLICATION_PROTOCOL_DEFINITION ( 'international standard', 'config_control_design', 1994, #163 ) ;
#240 = EDGE_LOOP ( 'NONE', ( #188 ) ) ;
#241 = DATE_AND_TIME ( #169, #242 ) ;
#242 = LOCAL_TIME ( 7, 59, 46.00000000000000000, #35 ) ;
#243 = FACE_OUTER_BOUND ( 'NONE', #111, .T. ) ;
ENDSEC;
END-ISO-10303-21;
