ISO-10303-21;
HEADER;
FILE_DESCRIPTION (( 'STEP AP203' ),
    '1' );
FILE_NAME ('334935.step',
    '2021-11-09T06:59:46',
    ( '' ),
    ( '' ),
    'SwSTEP 2.0',
    'SolidWorks 2019',
    '' );
FILE_SCHEMA (( 'CONFIG_CONTROL_DESIGN' ));
ENDSEC;

DATA;
#1 = EDGE_LOOP ( 'NONE', ( #128 ) ) ;
#2 = EDGE_LOOP ( 'NONE', ( #165 ) ) ;
#3 = EDGE_LOOP ( 'NONE', ( #204 ) ) ;
#4 = EDGE_LOOP ( 'NONE', ( #148 ) ) ;
#5 = EDGE_LOOP ( 'NONE', ( #171 ) ) ;
#6 = DATE_TIME_ROLE ( 'classification_date' ) ;
#7 = DIRECTION ( 'NONE',  ( -3.491481338843133355E-15, 0.0000000000000000000, -1.000000000000000000 ) ) ;
#8 = DIRECTION ( 'NONE',  ( 1.000000000000000000, 0.0000000000000000000, -3.355123878109231823E-15 ) ) ;
#9 = CC_DESIGN_PERSON_AND_ORGANIZATION_ASSIGNMENT ( #239, #69, ( #103 ) ) ;
#10 = DIRECTION ( 'NONE',  ( -3.491481338843133355E-15, 0.0000000000000000000, -1.000000000000000000 ) ) ;
#11 = PRODUCT_DEFINITION_FORMATION_WITH_SPECIFIED_SOURCE ( 'ANY', '', #35, .NOT_KNOWN. ) ;
#12 = PLANE ( 'NONE',  #59 ) ;
#13 = APPROVAL_STATUS ( 'not_yet_approved' ) ;
#14 = ADVANCED_FACE ( 'NONE', ( #151, #25 ), #150, .F. ) ;
#15 = PERSON_AND_ORGANIZATION ( #240, #185 ) ;
#16 = CARTESIAN_POINT ( 'NONE',  ( 0.0000000000000000000, 0.0000000000000000000, 0.0000000000000000000 ) ) ;
#17 = EDGE_CURVE ( 'NONE', #30, #30, #37, .T. ) ;
#18 = LOCAL_TIME ( 7, 59, 46.00000000000000000, #126 ) ;
#19 = ORIENTED_EDGE ( 'NONE', *, *, #123, .T. ) ;
#20 = EDGE_CURVE ( 'NONE', #87, #87, #85, .T. ) ;
#21 = PERSON_AND_ORGANIZATION_ROLE ( 'classification_officer' ) ;
#22 = CARTESIAN_POINT ( 'NONE',  ( 1.902857329669507616E-13, 0.0000000000000000000, 54.50000000000000000 ) ) ;
#23 = DIRECTION ( 'NONE',  ( 3.491481338843133355E-15, -0.0000000000000000000, 1.000000000000000000 ) ) ;
#24 = DIRECTION ( 'NONE',  ( 3.491481338843133355E-15, -0.0000000000000000000, 1.000000000000000000 ) ) ;
#25 = FACE_OUTER_BOUND ( 'NONE', #4, .T. ) ;
#26 = LOCAL_TIME ( 7, 59, 46.00000000000000000, #81 ) ;
#27 = DIRECTION ( 'NONE',  ( 1.000000000000000000, 0.0000000000000000000, -3.491481338843133355E-15 ) ) ;
#28 = DATE_AND_TIME ( #161, #18 ) ;
#29 = APPLICATION_CONTEXT ( 'configuration controlled 3d designs of mechanical parts and assemblies' ) ;
#30 = VERTEX_POINT ( 'NONE', #198 ) ;
#31 = CIRCLE ( 'NONE', #33, 2.068148347421859601 ) ;
#32 = DIRECTION ( 'NONE',  ( -1.000000000000000000, 0.0000000000000000000, 3.491481338843133355E-15 ) ) ;
#33 = AXIS2_PLACEMENT_3D ( 'NONE', #208, #137, #8 ) ;
#34 = ORIENTED_EDGE ( 'NONE', *, *, #108, .T. ) ;
#35 = PRODUCT ( '334935', '334935', '', ( #199 ) ) ;
#36 = EDGE_LOOP ( 'NONE', ( #186 ) ) ;
#37 = CIRCLE ( 'NONE', #189, 3.000000000000000000 ) ;
#38 = EDGE_CURVE ( 'NONE', #70, #70, #113, .T. ) ;
#39 = EDGE_LOOP ( 'NONE', ( #34 ) ) ;
#40 = DIRECTION ( 'NONE',  ( 1.000000000000000000, 0.0000000000000000000, -3.469446951953615767E-15 ) ) ;
#41 = CC_DESIGN_APPROVAL ( #93, ( #215 ) ) ;
#42 = DIRECTION ( 'NONE',  ( 3.491481338843133355E-15, -0.0000000000000000000, 1.000000000000000000 ) ) ;
#43 = APPLICATION_CONTEXT ( 'configuration controlled 3d designs of mechanical parts and assemblies' ) ;
#44 = PLANE ( 'NONE',  #58 ) ;
#45 = CARTESIAN_POINT ( 'NONE',  ( 3.489859826037728204E-14, 0.0000000000000000000, 9.995355802743764784 ) ) ;
#46 = FACE_OUTER_BOUND ( 'NONE', #202, .T. ) ;
#47 = CIRCLE ( 'NONE', #195, 2.000000000000000000 ) ;
#48 = APPROVAL_PERSON_ORGANIZATION ( #89, #55, #238 ) ;
#49 = VERTEX_POINT ( 'NONE', #218 ) ;
#50 = DIRECTION ( 'NONE',  ( 1.000000000000000000, 0.0000000000000000000, 0.0000000000000000000 ) ) ;
#51 = CC_DESIGN_PERSON_AND_ORGANIZATION_ASSIGNMENT ( #63, #56, ( #11 ) ) ;
#52 = DIRECTION ( 'NONE',  ( 1.000000000000000000, 0.0000000000000000000, -3.491481338843133355E-15 ) ) ;
#53 = EDGE_CURVE ( 'NONE', #160, #160, #31, .T. ) ;
#54 = ORIENTED_EDGE ( 'NONE', *, *, #123, .F. ) ;
#55 = APPROVAL ( #13, 'UNSPECIFIED' ) ;
#56 = PERSON_AND_ORGANIZATION_ROLE ( 'creator' ) ;
#57 = ORIENTED_EDGE ( 'NONE', *, *, #108, .F. ) ;
#58 = AXIS2_PLACEMENT_3D ( 'NONE', #104, #10, #176 ) ;
#59 = AXIS2_PLACEMENT_3D ( 'NONE', #86, #156, #52 ) ;
#60 = DIRECTION ( 'NONE',  ( 3.491481338843133355E-15, -0.0000000000000000000, 1.000000000000000000 ) ) ;
#61 = PRODUCT_DEFINITION_SHAPE ( 'NONE', 'NONE',  #103 ) ;
#62 = CARTESIAN_POINT ( 'NONE',  ( 4.275753076543797008E-31, 0.0000000000000000000, 1.224624353272506412E-16 ) ) ;
#63 = PERSON_AND_ORGANIZATION ( #240, #185 ) ;
#64 = DIRECTION ( 'NONE',  ( 3.491481338843133355E-15, -0.0000000000000000000, 1.000000000000000000 ) ) ;
#65 = DIRECTION ( 'NONE',  ( 3.491481338843133355E-15, -0.0000000000000000000, 1.000000000000000000 ) ) ;
#66 = CARTESIAN_POINT ( 'NONE',  ( 1.920314736363723472E-13, 0.0000000000000000000, 55.00000000000000000 ) ) ;
#67 = VERTEX_POINT ( 'NONE', #139 ) ;
#68 = CARTESIAN_POINT ( 'NONE',  ( 2.068148347421882249, 0.0000000000000000000, 6.517638090205022827 ) ) ;
#69 = PERSON_AND_ORGANIZATION_ROLE ( 'creator' ) ;
#70 = VERTEX_POINT ( 'NONE', #159 ) ;
#71 = LOCAL_TIME ( 7, 59, 46.00000000000000000, #181 ) ;
#72 = CALENDAR_DATE ( 2021, 9, 11 ) ;
#73 = ADVANCED_FACE ( 'NONE', ( #46 ), #44, .T. ) ;
#74 = CC_DESIGN_SECURITY_CLASSIFICATION ( #215, ( #11 ) ) ;
#75 = CONICAL_SURFACE ( 'NONE', #166, 2.500000000000000000, 0.7853981633974479459 ) ;
#76 = ORIENTED_EDGE ( 'NONE', *, *, #17, .F. ) ;
#77 = PERSON_AND_ORGANIZATION ( #240, #185 ) ;
#78 = CARTESIAN_POINT ( 'NONE',  ( 2.094888803305880013E-14, 0.0000000000000000000, 6.000000000000000000 ) ) ;
#79 = AXIS2_PLACEMENT_3D ( 'NONE', #136, #65, #172 ) ;
#80 = CC_DESIGN_APPROVAL ( #145, ( #11 ) ) ;
#81 = COORDINATED_UNIVERSAL_TIME_OFFSET ( 1, 0, .AHEAD. ) ;
#82 = FACE_OUTER_BOUND ( 'NONE', #146, .T. ) ;
#83 = PLANE ( 'NONE',  #177 ) ;
#84 = FACE_OUTER_BOUND ( 'NONE', #200, .T. ) ;
#85 = CIRCLE ( 'NONE', #163, 1.999999999999999112 ) ;
#86 = CARTESIAN_POINT ( 'NONE',  ( 1.920314736363723472E-13, 0.0000000000000000000, 55.00000000000000000 ) ) ;
#87 = VERTEX_POINT ( 'NONE', #106 ) ;
#88 = VERTEX_POINT ( 'NONE', #219 ) ;
#89 = PERSON_AND_ORGANIZATION ( #240, #185 ) ;
#90 = APPROVAL_DATE_TIME ( #28, #55 ) ;
#91 = AXIS2_PLACEMENT_3D ( 'NONE', #232, #42, #234 ) ;
#92 =( GEOMETRIC_REPRESENTATION_CONTEXT ( 3 ) GLOBAL_UNCERTAINTY_ASSIGNED_CONTEXT ( ( #216 ) ) GLOBAL_UNIT_ASSIGNED_CONTEXT ( ( #183, #214, #125 ) ) REPRESENTATION_CONTEXT ( 'NONE', 'WORKASPACE' ) );
#93 = APPROVAL ( #173, 'UNSPECIFIED' ) ;
#94 = MANIFOLD_SOLID_BREP ( 'Corps-Déplacer/Copier1[1]', #201 ) ;
#95 = ADVANCED_FACE ( 'NONE', ( #116, #114 ), #75, .T. ) ;
#96 = EDGE_LOOP ( 'NONE', ( #144 ) ) ;
#97 = DIRECTION ( 'NONE',  ( 1.000000000000000000, 0.0000000000000000000, -4.625929269271485322E-15 ) ) ;
#98 = ADVANCED_FACE ( 'NONE', ( #84 ), #83, .T. ) ;
#99 = PERSON_AND_ORGANIZATION_ROLE ( 'design_supplier' ) ;
#100 = CARTESIAN_POINT ( 'NONE',  ( 2.137876538271898504E-31, 0.0000000000000000000, 6.123121766362532060E-17 ) ) ;
#101 = DIRECTION ( 'NONE',  ( 1.000000000000000000, 0.0000000000000000000, -3.491481338843133355E-15 ) ) ;
#102 = MANIFOLD_SOLID_BREP ( 'Corps-Déplacer/Copier1[2]', #141 ) ;
#103 = PRODUCT_DEFINITION ( 'UNKNOWN', '', #11, #169 ) ;
#104 = CARTESIAN_POINT ( 'NONE',  ( 2.094888803305880013E-14, 0.0000000000000000000, 6.000000000000000000 ) ) ;
#105 = COORDINATED_UNIVERSAL_TIME_OFFSET ( 1, 0, .AHEAD. ) ;
#106 = CARTESIAN_POINT ( 'NONE',  ( 2.000000000000019984, 0.0000000000000000000, 5.999999999999992895 ) ) ;
#107 = APPLICATION_PROTOCOL_DEFINITION ( 'international standard', 'config_control_design', 1994, #43 ) ;
#108 = EDGE_CURVE ( 'NONE', #49, #49, #47, .T. ) ;
#109 = AXIS2_PLACEMENT_3D ( 'NONE', #191, #24, #101 ) ;
#110 = EDGE_LOOP ( 'NONE', ( #19 ) ) ;
#111 = CC_DESIGN_PERSON_AND_ORGANIZATION_ASSIGNMENT ( #77, #99, ( #11 ) ) ;
#112 = APPROVAL_ROLE ( '' ) ;
#113 = CIRCLE ( 'NONE', #220, 1.999999999999999112 ) ;
#114 = FACE_BOUND ( 'NONE', #5, .T. ) ;
#115 = PERSON_AND_ORGANIZATION ( #240, #185 ) ;
#116 = FACE_OUTER_BOUND ( 'NONE', #110, .T. ) ;
#117 = CYLINDRICAL_SURFACE ( 'NONE', #109, 1.999999999999999556 ) ;
#118 = ADVANCED_FACE ( 'NONE', ( #206, #187 ), #134, .T. ) ;
#119 = FACE_OUTER_BOUND ( 'NONE', #39, .T. ) ;
#120 = DIRECTION ( 'NONE',  ( 1.000000000000000000, 0.0000000000000000000, -3.491481338843133355E-15 ) ) ;
#121 = LOCAL_TIME ( 7, 59, 46.00000000000000000, #105 ) ;
#122 = PLANE ( 'NONE',  #196 ) ;
#123 = EDGE_CURVE ( 'NONE', #67, #67, #233, .T. ) ;
#124 = DATE_TIME_ROLE ( 'creation_date' ) ;
#125 =( NAMED_UNIT ( * ) SI_UNIT ( $, .STERADIAN. ) SOLID_ANGLE_UNIT ( ) );
#126 = COORDINATED_UNIVERSAL_TIME_OFFSET ( 1, 0, .AHEAD. ) ;
#127 = AXIS2_PLACEMENT_3D ( 'NONE', #153, #236, #120 ) ;
#128 = ORIENTED_EDGE ( 'NONE', *, *, #20, .F. ) ;
#129 = CC_DESIGN_APPROVAL ( #55, ( #103 ) ) ;
#130 = DATE_AND_TIME ( #152, #26 ) ;
#131 = CC_DESIGN_PERSON_AND_ORGANIZATION_ASSIGNMENT ( #115, #21, ( #215 ) ) ;
#132 = DIRECTION ( 'NONE',  ( -3.491481338843133355E-15, 0.0000000000000000000, -1.000000000000000000 ) ) ;
#133 = CALENDAR_DATE ( 2021, 9, 11 ) ;
#134 = CYLINDRICAL_SURFACE ( 'NONE', #91, 3.000000000000000000 ) ;
#135 = CC_DESIGN_DATE_AND_TIME_ASSIGNMENT ( #162, #124, ( #103 ) ) ;
#136 = CARTESIAN_POINT ( 'NONE',  ( 1.920314736363723472E-13, 0.0000000000000000000, 55.00000000000000000 ) ) ;
#137 = DIRECTION ( 'NONE',  ( 3.491481338843133355E-15, -0.0000000000000000000, 1.000000000000000000 ) ) ;
#138 = DIRECTION ( 'NONE',  ( -3.491481338843133355E-15, 0.0000000000000000000, -1.000000000000000000 ) ) ;
#139 = CARTESIAN_POINT ( 'NONE',  ( 3.000000000000190514, 0.0000000000000000000, 54.49999999999998579 ) ) ;
#140 = CARTESIAN_POINT ( 'NONE',  ( 2.094888803305880013E-14, 0.0000000000000000000, 6.000000000000000000 ) ) ;
#141 = CLOSED_SHELL ( 'NONE', ( #98, #222, #242 ) ) ;
#142 = AXIS2_PLACEMENT_3D ( 'NONE', #16, #217, #50 ) ;
#143 = APPROVAL_STATUS ( 'not_yet_approved' ) ;
#144 = ORIENTED_EDGE ( 'NONE', *, *, #20, .T. ) ;
#145 = APPROVAL ( #143, 'UNSPECIFIED' ) ;
#146 = EDGE_LOOP ( 'NONE', ( #76 ) ) ;
#147 = ORIENTED_EDGE ( 'NONE', *, *, #38, .F. ) ;
#148 = ORIENTED_EDGE ( 'NONE', *, *, #53, .F. ) ;
#149 = CC_DESIGN_DATE_AND_TIME_ASSIGNMENT ( #231, #6, ( #215 ) ) ;
#150 = TOROIDAL_SURFACE ( 'NONE', #127, 3.999999999999999112, 2.000000000000000000 ) ;
#151 = FACE_OUTER_BOUND ( 'NONE', #2, .T. ) ;
#152 = CALENDAR_DATE ( 2021, 9, 11 ) ;
#153 = CARTESIAN_POINT ( 'NONE',  ( 2.094888803305880013E-14, 0.0000000000000000000, 6.000000000000000000 ) ) ;
#154 = FACE_OUTER_BOUND ( 'NONE', #1, .T. ) ;
#155 = DIRECTION ( 'NONE',  ( -1.000000000000000000, 0.0000000000000000000, 3.491481338843133355E-15 ) ) ;
#156 = DIRECTION ( 'NONE',  ( 3.491481338843133355E-15, -0.0000000000000000000, 1.000000000000000000 ) ) ;
#157 = ADVANCED_BREP_SHAPE_REPRESENTATION ( '334935', ( #94, #102, #142 ), #92 ) ;
#158 = PERSON_AND_ORGANIZATION ( #240, #185 ) ;
#159 = CARTESIAN_POINT ( 'NONE',  ( 2.000000000000019984, 0.0000000000000000000, 5.999999999999992895 ) ) ;
#160 = VERTEX_POINT ( 'NONE', #68 ) ;
#161 = CALENDAR_DATE ( 2021, 9, 11 ) ;
#162 = DATE_AND_TIME ( #182, #121 ) ;
#163 = AXIS2_PLACEMENT_3D ( 'NONE', #230, #60, #40 ) ;
#164 = CONICAL_SURFACE ( 'NONE', #227, 3.000000000000000000, 0.2617993877991427465 ) ;
#165 = ORIENTED_EDGE ( 'NONE', *, *, #38, .T. ) ;
#166 = AXIS2_PLACEMENT_3D ( 'NONE', #66, #7, #211 ) ;
#167 = EDGE_LOOP ( 'NONE', ( #54 ) ) ;
#168 = COORDINATED_UNIVERSAL_TIME_OFFSET ( 1, 0, .AHEAD. ) ;
#169 = DESIGN_CONTEXT ( 'detailed design', #43, 'design' ) ;
#170 = EDGE_LOOP ( 'NONE', ( #225 ) ) ;
#171 = ORIENTED_EDGE ( 'NONE', *, *, #180, .F. ) ;
#172 = DIRECTION ( 'NONE',  ( 1.000000000000000000, 0.0000000000000000000, -2.775557561562891351E-15 ) ) ;
#173 = APPROVAL_STATUS ( 'not_yet_approved' ) ;
#174 = DIRECTION ( 'NONE',  ( 3.491481338843133355E-15, -0.0000000000000000000, 1.000000000000000000 ) ) ;
#175 = DIRECTION ( 'NONE',  ( 1.000000000000000000, 0.0000000000000000000, -3.469446951953614189E-15 ) ) ;
#176 = DIRECTION ( 'NONE',  ( -1.000000000000000000, 0.0000000000000000000, 3.491481338843133355E-15 ) ) ;
#177 = AXIS2_PLACEMENT_3D ( 'NONE', #100, #132, #155 ) ;
#178 = APPROVAL_PERSON_ORGANIZATION ( #15, #145, #237 ) ;
#179 = DIRECTION ( 'NONE',  ( 3.491481338843133355E-15, -0.0000000000000000000, 1.000000000000000000 ) ) ;
#180 = EDGE_CURVE ( 'NONE', #88, #88, #184, .T. ) ;
#181 = COORDINATED_UNIVERSAL_TIME_OFFSET ( 1, 0, .AHEAD. ) ;
#182 = CALENDAR_DATE ( 2021, 9, 11 ) ;
#183 =( LENGTH_UNIT ( ) NAMED_UNIT ( * ) SI_UNIT ( .MILLI., .METRE. ) );
#184 = CIRCLE ( 'NONE', #79, 2.500000000000000000 ) ;
#185 = ORGANIZATION ( 'UNSPECIFIED', 'UNSPECIFIED', '' ) ;
#186 = ORIENTED_EDGE ( 'NONE', *, *, #17, .T. ) ;
#187 = FACE_OUTER_BOUND ( 'NONE', #36, .T. ) ;
#188 = PERSON_AND_ORGANIZATION ( #240, #185 ) ;
#189 = AXIS2_PLACEMENT_3D ( 'NONE', #213, #179, #175 ) ;
#190 = FACE_BOUND ( 'NONE', #170, .T. ) ;
#191 = CARTESIAN_POINT ( 'NONE',  ( 0.0000000000000000000, 0.0000000000000000000, 0.0000000000000000000 ) ) ;
#192 = FACE_OUTER_BOUND ( 'NONE', #3, .T. ) ;
#193 = CC_DESIGN_PERSON_AND_ORGANIZATION_ASSIGNMENT ( #158, #221, ( #35 ) ) ;
#194 = DIRECTION ( 'NONE',  ( 3.491481338843133355E-15, -0.0000000000000000000, 1.000000000000000000 ) ) ;
#195 = AXIS2_PLACEMENT_3D ( 'NONE', #62, #194, #27 ) ;
#196 = AXIS2_PLACEMENT_3D ( 'NONE', #140, #138, #32 ) ;
#197 = APPLICATION_PROTOCOL_DEFINITION ( 'international standard', 'config_control_design', 1994, #29 ) ;
#198 = CARTESIAN_POINT ( 'NONE',  ( 3.000000000000034639, 0.0000000000000000000, 9.995355802743754126 ) ) ;
#199 = MECHANICAL_CONTEXT ( 'NONE', #29, 'mechanical' ) ;
#200 = EDGE_LOOP ( 'NONE', ( #57 ) ) ;
#201 = CLOSED_SHELL ( 'NONE', ( #118, #95, #235, #14, #207, #73 ) ) ;
#202 = EDGE_LOOP ( 'NONE', ( #147 ) ) ;
#203 = LOCAL_TIME ( 7, 59, 46.00000000000000000, #168 ) ;
#204 = ORIENTED_EDGE ( 'NONE', *, *, #180, .T. ) ;
#205 = APPROVAL_DATE_TIME ( #130, #93 ) ;
#206 = FACE_OUTER_BOUND ( 'NONE', #167, .T. ) ;
#207 = ADVANCED_FACE ( 'NONE', ( #190, #82 ), #164, .T. ) ;
#208 = CARTESIAN_POINT ( 'NONE',  ( 2.275621176528406125E-14, 0.0000000000000000000, 6.517638090205029933 ) ) ;
#209 = SECURITY_CLASSIFICATION_LEVEL ( 'unclassified' ) ;
#210 = DIRECTION ( 'NONE',  ( 1.000000000000000000, 0.0000000000000000000, -3.469446951953614189E-15 ) ) ;
#211 = DIRECTION ( 'NONE',  ( -1.000000000000000000, 0.0000000000000000000, 2.775557561562891351E-15 ) ) ;
#212 = PRODUCT_RELATED_PRODUCT_CATEGORY ( 'detail', '', ( #35 ) ) ;
#213 = CARTESIAN_POINT ( 'NONE',  ( 3.489859826037728204E-14, 0.0000000000000000000, 9.995355802743764784 ) ) ;
#214 =( NAMED_UNIT ( * ) PLANE_ANGLE_UNIT ( ) SI_UNIT ( $, .RADIAN. ) );
#215 = SECURITY_CLASSIFICATION ( '', '', #209 ) ;
#216 = UNCERTAINTY_MEASURE_WITH_UNIT (LENGTH_MEASURE( 1.000000000000000082E-05 ), #183, 'distance_accuracy_value', 'NONE');
#217 = DIRECTION ( 'NONE',  ( 0.0000000000000000000, 0.0000000000000000000, 1.000000000000000000 ) ) ;
#218 = CARTESIAN_POINT ( 'NONE',  ( 2.000000000000000000, 0.0000000000000000000, -6.860500242359016069E-15 ) ) ;
#219 = CARTESIAN_POINT ( 'NONE',  ( 2.500000000000192291, 0.0000000000000000000, 54.99999999999999289 ) ) ;
#220 = AXIS2_PLACEMENT_3D ( 'NONE', #78, #64, #228 ) ;
#221 = PERSON_AND_ORGANIZATION_ROLE ( 'design_owner' ) ;
#222 = ADVANCED_FACE ( 'NONE', ( #119, #154 ), #117, .T. ) ;
#223 = DATE_AND_TIME ( #133, #71 ) ;
#224 = APPROVAL_DATE_TIME ( #223, #145 ) ;
#225 = ORIENTED_EDGE ( 'NONE', *, *, #53, .T. ) ;
#226 = AXIS2_PLACEMENT_3D ( 'NONE', #22, #174, #97 ) ;
#227 = AXIS2_PLACEMENT_3D ( 'NONE', #45, #23, #210 ) ;
#228 = DIRECTION ( 'NONE',  ( 1.000000000000000000, 0.0000000000000000000, -3.469446951953615767E-15 ) ) ;
#229 = SHAPE_DEFINITION_REPRESENTATION ( #61, #157 ) ;
#230 = CARTESIAN_POINT ( 'NONE',  ( 2.094888803305880013E-14, 0.0000000000000000000, 6.000000000000000000 ) ) ;
#231 = DATE_AND_TIME ( #72, #203 ) ;
#232 = CARTESIAN_POINT ( 'NONE',  ( 0.0000000000000000000, 0.0000000000000000000, 0.0000000000000000000 ) ) ;
#233 = CIRCLE ( 'NONE', #226, 3.000000000000000000 ) ;
#234 = DIRECTION ( 'NONE',  ( 1.000000000000000000, 0.0000000000000000000, -3.491481338843133355E-15 ) ) ;
#235 = ADVANCED_FACE ( 'NONE', ( #192 ), #12, .T. ) ;
#236 = DIRECTION ( 'NONE',  ( 3.491481338843133355E-15, -0.0000000000000000000, 1.000000000000000000 ) ) ;
#237 = APPROVAL_ROLE ( '' ) ;
#238 = APPROVAL_ROLE ( '' ) ;
#239 = PERSON_AND_ORGANIZATION ( #240, #185 ) ;
#240 = PERSON ( 'UNSPECIFIED', 'UNSPECIFIED', 'UNSPECIFIED', ('UNSPECIFIED'), ('UNSPECIFIED'), ('UNSPECIFIED') ) ;
#241 = FACE_OUTER_BOUND ( 'NONE', #96, .T. ) ;
#242 = ADVANCED_FACE ( 'NONE', ( #241 ), #122, .F. ) ;
#243 = APPROVAL_PERSON_ORGANIZATION ( #188, #93, #112 ) ;
ENDSEC;
END-ISO-10303-21;
