ISO-10303-21;
HEADER;
FILE_DESCRIPTION (( 'STEP AP203' ),
    '1' );
FILE_NAME ('334934.step',
    '2021-11-09T06:59:45',
    ( '' ),
    ( '' ),
    'SwSTEP 2.0',
    'SolidWorks 2019',
    '' );
FILE_SCHEMA (( 'CONFIG_CONTROL_DESIGN' ));
ENDSEC;

DATA;
#1 = EDGE_LOOP ( 'NONE', ( #169 ) ) ;
#2 = FACE_OUTER_BOUND ( 'NONE', #36, .T. ) ;
#3 = EDGE_CURVE ( 'NONE', #103, #103, #222, .T. ) ;
#4 = FACE_OUTER_BOUND ( 'NONE', #1, .T. ) ;
#5 =( GEOMETRIC_REPRESENTATION_CONTEXT ( 3 ) GLOBAL_UNCERTAINTY_ASSIGNED_CONTEXT ( ( #240 ) ) GLOBAL_UNIT_ASSIGNED_CONTEXT ( ( #190, #235, #81 ) ) REPRESENTATION_CONTEXT ( 'NONE', 'WORKASPACE' ) );
#6 = DIRECTION ( 'NONE',  ( -3.491481338843133355E-15, 0.0000000000000000000, -1.000000000000000000 ) ) ;
#7 = FACE_BOUND ( 'NONE', #130, .T. ) ;
#8 = FACE_OUTER_BOUND ( 'NONE', #127, .T. ) ;
#9 = CIRCLE ( 'NONE', #207, 3.000000000000000000 ) ;
#10 = APPROVAL_ROLE ( '' ) ;
#11 = CARTESIAN_POINT ( 'NONE',  ( 1.568148347421877142, 0.0000000000000000000, 5.017638090205022827 ) ) ;
#12 = COORDINATED_UNIVERSAL_TIME_OFFSET ( 1, 0, .AHEAD. ) ;
#13 = AXIS2_PLACEMENT_3D ( 'NONE', #40, #23, #54 ) ;
#14 = CC_DESIGN_APPROVAL ( #17, ( #223 ) ) ;
#15 = APPROVAL_ROLE ( '' ) ;
#16 = PERSON_AND_ORGANIZATION_ROLE ( 'design_supplier' ) ;
#17 = APPROVAL ( #199, 'UNSPECIFIED' ) ;
#18 = EDGE_LOOP ( 'NONE', ( #200 ) ) ;
#19 = CIRCLE ( 'NONE', #236, 1.499999999999999556 ) ;
#20 = EDGE_LOOP ( 'NONE', ( #74 ) ) ;
#21 = CARTESIAN_POINT ( 'NONE',  ( 3.617656912723333329E-14, 0.0000000000000000000, 10.36138120652824846 ) ) ;
#22 = DIRECTION ( 'NONE',  ( 1.000000000000000000, 0.0000000000000000000, -3.491481338843133355E-15 ) ) ;
#23 = DIRECTION ( 'NONE',  ( -3.491481338843133355E-15, 0.0000000000000000000, -1.000000000000000000 ) ) ;
#24 = DIRECTION ( 'NONE',  ( 1.000000000000000000, 0.0000000000000000000, -3.491481338843133355E-15 ) ) ;
#25 = CC_DESIGN_PERSON_AND_ORGANIZATION_ASSIGNMENT ( #125, #87, ( #227 ) ) ;
#26 = CARTESIAN_POINT ( 'NONE',  ( 1.571166602479410010E-14, 0.0000000000000000000, 4.500000000000000000 ) ) ;
#27 = ADVANCED_BREP_SHAPE_REPRESENTATION ( '334934', ( #93, #179, #142 ), #5 ) ;
#28 = DIRECTION ( 'NONE',  ( 0.0000000000000000000, 0.0000000000000000000, 1.000000000000000000 ) ) ;
#29 = LOCAL_TIME ( 7, 59, 45.00000000000000000, #30 ) ;
#30 = COORDINATED_UNIVERSAL_TIME_OFFSET ( 1, 0, .AHEAD. ) ;
#31 = ADVANCED_FACE ( 'NONE', ( #7, #4 ), #226, .T. ) ;
#32 = EDGE_LOOP ( 'NONE', ( #195 ) ) ;
#33 = PERSON_AND_ORGANIZATION_ROLE ( 'classification_officer' ) ;
#34 = AXIS2_PLACEMENT_3D ( 'NONE', #95, #204, #137 ) ;
#35 = LOCAL_TIME ( 7, 59, 45.00000000000000000, #167 ) ;
#36 = EDGE_LOOP ( 'NONE', ( #90 ) ) ;
#37 = ORIENTED_EDGE ( 'NONE', *, *, #46, .T. ) ;
#38 = CARTESIAN_POINT ( 'NONE',  ( 1.571166602479410010E-14, 0.0000000000000000000, 4.500000000000000000 ) ) ;
#39 = PLANE ( 'NONE',  #89 ) ;
#40 = CARTESIAN_POINT ( 'NONE',  ( 1.571166602479410010E-14, 0.0000000000000000000, 4.500000000000000000 ) ) ;
#41 = CARTESIAN_POINT ( 'NONE',  ( 4.275753076543797008E-31, 0.0000000000000000000, 1.224624353272506412E-16 ) ) ;
#42 = CLOSED_SHELL ( 'NONE', ( #201, #111, #133 ) ) ;
#43 = FACE_OUTER_BOUND ( 'NONE', #49, .T. ) ;
#44 = APPLICATION_PROTOCOL_DEFINITION ( 'international standard', 'config_control_design', 1994, #230 ) ;
#45 = VERTEX_POINT ( 'NONE', #160 ) ;
#46 = EDGE_CURVE ( 'NONE', #121, #121, #112, .T. ) ;
#47 = PLANE ( 'NONE',  #145 ) ;
#48 = AXIS2_PLACEMENT_3D ( 'NONE', #41, #188, #24 ) ;
#49 = EDGE_LOOP ( 'NONE', ( #219 ) ) ;
#50 = CALENDAR_DATE ( 2021, 9, 11 ) ;
#51 = ORIENTED_EDGE ( 'NONE', *, *, #173, .F. ) ;
#52 = CC_DESIGN_APPROVAL ( #166, ( #227 ) ) ;
#53 = EDGE_LOOP ( 'NONE', ( #182 ) ) ;
#54 = DIRECTION ( 'NONE',  ( -1.000000000000000000, 0.0000000000000000000, 3.491481338843133355E-15 ) ) ;
#55 = CC_DESIGN_DATE_AND_TIME_ASSIGNMENT ( #148, #85, ( #223 ) ) ;
#56 = DIRECTION ( 'NONE',  ( -1.000000000000000000, 0.0000000000000000000, 3.491481338843133355E-15 ) ) ;
#57 = FACE_OUTER_BOUND ( 'NONE', #239, .T. ) ;
#58 = CARTESIAN_POINT ( 'NONE',  ( 3.617656912723333329E-14, 0.0000000000000000000, 10.36138120652824846 ) ) ;
#59 = CYLINDRICAL_SURFACE ( 'NONE', #63, 3.000000000000000000 ) ;
#60 = CIRCLE ( 'NONE', #120, 3.000000000000000000 ) ;
#61 = VERTEX_POINT ( 'NONE', #80 ) ;
#62 = APPLICATION_PROTOCOL_DEFINITION ( 'international standard', 'config_control_design', 1994, #71 ) ;
#63 = AXIS2_PLACEMENT_3D ( 'NONE', #189, #115, #22 ) ;
#64 = MECHANICAL_CONTEXT ( 'NONE', #71, 'mechanical' ) ;
#65 = DIRECTION ( 'NONE',  ( 1.000000000000000000, 0.0000000000000000000, -3.491481338843133355E-15 ) ) ;
#66 = EDGE_CURVE ( 'NONE', #216, #216, #60, .T. ) ;
#67 = PERSON ( 'UNSPECIFIED', 'UNSPECIFIED', 'UNSPECIFIED', ('UNSPECIFIED'), ('UNSPECIFIED'), ('UNSPECIFIED') ) ;
#68 = AXIS2_PLACEMENT_3D ( 'NONE', #107, #208, #205 ) ;
#69 = PERSON_AND_ORGANIZATION ( #67, #82 ) ;
#70 = APPROVAL_DATE_TIME ( #238, #166 ) ;
#71 = APPLICATION_CONTEXT ( 'configuration controlled 3d designs of mechanical parts and assemblies' ) ;
#72 = AXIS2_PLACEMENT_3D ( 'NONE', #113, #76, #202 ) ;
#73 = DATE_AND_TIME ( #221, #35 ) ;
#74 = ORIENTED_EDGE ( 'NONE', *, *, #215, .F. ) ;
#75 = ORIENTED_EDGE ( 'NONE', *, *, #46, .F. ) ;
#76 = DIRECTION ( 'NONE',  ( 3.491481338843133355E-15, -0.0000000000000000000, 1.000000000000000000 ) ) ;
#77 = DIRECTION ( 'NONE',  ( 3.491481338843133355E-15, -0.0000000000000000000, 1.000000000000000000 ) ) ;
#78 = DIRECTION ( 'NONE',  ( 1.000000000000000000, 0.0000000000000000000, -3.469446951953614189E-15 ) ) ;
#79 = PLANE ( 'NONE',  #197 ) ;
#80 = CARTESIAN_POINT ( 'NONE',  ( 1.500000000000015099, 0.0000000000000000000, 4.499999999999994671 ) ) ;
#81 =( NAMED_UNIT ( * ) SI_UNIT ( $, .STERADIAN. ) SOLID_ANGLE_UNIT ( ) );
#82 = ORGANIZATION ( 'UNSPECIFIED', 'UNSPECIFIED', '' ) ;
#83 = CALENDAR_DATE ( 2021, 9, 11 ) ;
#84 = CC_DESIGN_PERSON_AND_ORGANIZATION_ASSIGNMENT ( #138, #209, ( #218 ) ) ;
#85 = DATE_TIME_ROLE ( 'classification_date' ) ;
#86 = CC_DESIGN_PERSON_AND_ORGANIZATION_ASSIGNMENT ( #140, #102, ( #122 ) ) ;
#87 = PERSON_AND_ORGANIZATION_ROLE ( 'creator' ) ;
#88 = ORIENTED_EDGE ( 'NONE', *, *, #66, .T. ) ;
#89 = AXIS2_PLACEMENT_3D ( 'NONE', #171, #6, #186 ) ;
#90 = ORIENTED_EDGE ( 'NONE', *, *, #228, .T. ) ;
#91 = PLANE ( 'NONE',  #13 ) ;
#92 = DIRECTION ( 'NONE',  ( 3.491481338843133355E-15, -0.0000000000000000000, 1.000000000000000000 ) ) ;
#93 = MANIFOLD_SOLID_BREP ( 'Corps-Déplacer/Copier1[1]', #97 ) ;
#94 = DIRECTION ( 'NONE',  ( 1.000000000000000000, 0.0000000000000000000, -3.469446951953615372E-15 ) ) ;
#95 = CARTESIAN_POINT ( 'NONE',  ( 1.920314736363723472E-13, 0.0000000000000000000, 55.00000000000000000 ) ) ;
#96 = DIRECTION ( 'NONE',  ( 3.491481338843133355E-15, -0.0000000000000000000, 1.000000000000000000 ) ) ;
#97 = CLOSED_SHELL ( 'NONE', ( #150, #98, #243, #129, #31, #177 ) ) ;
#98 = ADVANCED_FACE ( 'NONE', ( #8, #224 ), #141, .T. ) ;
#99 = APPROVAL_PERSON_ORGANIZATION ( #214, #166, #10 ) ;
#100 = DESIGN_CONTEXT ( 'detailed design', #230, 'design' ) ;
#101 = PERSON_AND_ORGANIZATION ( #67, #82 ) ;
#102 = PERSON_AND_ORGANIZATION_ROLE ( 'creator' ) ;
#103 = VERTEX_POINT ( 'NONE', #119 ) ;
#104 = EDGE_LOOP ( 'NONE', ( #109 ) ) ;
#105 = CC_DESIGN_PERSON_AND_ORGANIZATION_ASSIGNMENT ( #106, #16, ( #227 ) ) ;
#106 = PERSON_AND_ORGANIZATION ( #67, #82 ) ;
#107 = CARTESIAN_POINT ( 'NONE',  ( 1.920314736363723472E-13, 0.0000000000000000000, 55.00000000000000000 ) ) ;
#108 = ORIENTED_EDGE ( 'NONE', *, *, #215, .T. ) ;
#109 = ORIENTED_EDGE ( 'NONE', *, *, #153, .T. ) ;
#110 = SHAPE_DEFINITION_REPRESENTATION ( #149, #27 ) ;
#111 = ADVANCED_FACE ( 'NONE', ( #2, #43 ), #232, .T. ) ;
#112 = CIRCLE ( 'NONE', #128, 1.568148347421859601 ) ;
#113 = CARTESIAN_POINT ( 'NONE',  ( 0.0000000000000000000, 0.0000000000000000000, 0.0000000000000000000 ) ) ;
#114 = CARTESIAN_POINT ( 'NONE',  ( 1.571166602479410010E-14, 0.0000000000000000000, 4.500000000000000000 ) ) ;
#115 = DIRECTION ( 'NONE',  ( 3.491481338843133355E-15, -0.0000000000000000000, 1.000000000000000000 ) ) ;
#116 = AXIS2_PLACEMENT_3D ( 'NONE', #114, #135, #231 ) ;
#117 = LOCAL_TIME ( 7, 59, 45.00000000000000000, #220 ) ;
#118 = FACE_OUTER_BOUND ( 'NONE', #20, .T. ) ;
#119 = CARTESIAN_POINT ( 'NONE',  ( 2.500000000000192291, 0.0000000000000000000, 54.99999999999999289 ) ) ;
#120 = AXIS2_PLACEMENT_3D ( 'NONE', #21, #185, #157 ) ;
#121 = VERTEX_POINT ( 'NONE', #11 ) ;
#122 = PRODUCT_DEFINITION ( 'UNKNOWN', '', #227, #100 ) ;
#123 = APPROVAL_STATUS ( 'not_yet_approved' ) ;
#124 = TOROIDAL_SURFACE ( 'NONE', #116, 3.499999999999999556, 2.000000000000000000 ) ;
#125 = PERSON_AND_ORGANIZATION ( #67, #82 ) ;
#126 = ORIENTED_EDGE ( 'NONE', *, *, #173, .T. ) ;
#127 = EDGE_LOOP ( 'NONE', ( #126 ) ) ;
#128 = AXIS2_PLACEMENT_3D ( 'NONE', #131, #92, #170 ) ;
#129 = ADVANCED_FACE ( 'NONE', ( #57, #155 ), #124, .F. ) ;
#130 = EDGE_LOOP ( 'NONE', ( #37 ) ) ;
#131 = CARTESIAN_POINT ( 'NONE',  ( 1.751898975701935175E-14, 0.0000000000000000000, 5.017638090205028156 ) ) ;
#132 = CC_DESIGN_APPROVAL ( #161, ( #122 ) ) ;
#133 = ADVANCED_FACE ( 'NONE', ( #229 ), #91, .F. ) ;
#134 = FACE_OUTER_BOUND ( 'NONE', #53, .T. ) ;
#135 = DIRECTION ( 'NONE',  ( 3.491481338843133355E-15, -0.0000000000000000000, 1.000000000000000000 ) ) ;
#136 = DIRECTION ( 'NONE',  ( 3.491481338843133355E-15, -0.0000000000000000000, 1.000000000000000000 ) ) ;
#137 = DIRECTION ( 'NONE',  ( -1.000000000000000000, 0.0000000000000000000, 2.775557561562891351E-15 ) ) ;
#138 = PERSON_AND_ORGANIZATION ( #67, #82 ) ;
#139 = CALENDAR_DATE ( 2021, 9, 11 ) ;
#140 = PERSON_AND_ORGANIZATION ( #67, #82 ) ;
#141 = CONICAL_SURFACE ( 'NONE', #34, 2.500000000000000000, 0.7853981633974479459 ) ;
#142 = AXIS2_PLACEMENT_3D ( 'NONE', #159, #28, #233 ) ;
#143 = DATE_AND_TIME ( #163, #203 ) ;
#144 = VERTEX_POINT ( 'NONE', #191 ) ;
#145 = AXIS2_PLACEMENT_3D ( 'NONE', #213, #162, #65 ) ;
#146 = APPROVAL_PERSON_ORGANIZATION ( #217, #17, #194 ) ;
#147 = CC_DESIGN_PERSON_AND_ORGANIZATION_ASSIGNMENT ( #69, #33, ( #223 ) ) ;
#148 = DATE_AND_TIME ( #50, #117 ) ;
#149 = PRODUCT_DEFINITION_SHAPE ( 'NONE', 'NONE',  #122 ) ;
#150 = ADVANCED_FACE ( 'NONE', ( #187, #154 ), #59, .T. ) ;
#151 = CIRCLE ( 'NONE', #181, 1.499999999999999556 ) ;
#152 = DIRECTION ( 'NONE',  ( 3.491481338843133355E-15, -0.0000000000000000000, 1.000000000000000000 ) ) ;
#153 = EDGE_CURVE ( 'NONE', #144, #144, #151, .T. ) ;
#154 = FACE_OUTER_BOUND ( 'NONE', #242, .T. ) ;
#155 = FACE_OUTER_BOUND ( 'NONE', #168, .T. ) ;
#156 = CARTESIAN_POINT ( 'NONE',  ( 1.571166602479410010E-14, 0.0000000000000000000, 4.500000000000000000 ) ) ;
#157 = DIRECTION ( 'NONE',  ( 1.000000000000000000, 0.0000000000000000000, -3.469446951953614189E-15 ) ) ;
#158 = CIRCLE ( 'NONE', #48, 1.500000000000000444 ) ;
#159 = CARTESIAN_POINT ( 'NONE',  ( 0.0000000000000000000, 0.0000000000000000000, 0.0000000000000000000 ) ) ;
#160 = CARTESIAN_POINT ( 'NONE',  ( 3.000000000000190514, 0.0000000000000000000, 54.49999999999998579 ) ) ;
#161 = APPROVAL ( #165, 'UNSPECIFIED' ) ;
#162 = DIRECTION ( 'NONE',  ( 3.491481338843133355E-15, -0.0000000000000000000, 1.000000000000000000 ) ) ;
#163 = CALENDAR_DATE ( 2021, 9, 11 ) ;
#164 = LOCAL_TIME ( 7, 59, 45.00000000000000000, #180 ) ;
#165 = APPROVAL_STATUS ( 'not_yet_approved' ) ;
#166 = APPROVAL ( #123, 'UNSPECIFIED' ) ;
#167 = COORDINATED_UNIVERSAL_TIME_OFFSET ( 1, 0, .AHEAD. ) ;
#168 = EDGE_LOOP ( 'NONE', ( #75 ) ) ;
#169 = ORIENTED_EDGE ( 'NONE', *, *, #66, .F. ) ;
#170 = DIRECTION ( 'NONE',  ( 1.000000000000000000, 0.0000000000000000000, -3.318672264959131022E-15 ) ) ;
#171 = CARTESIAN_POINT ( 'NONE',  ( 2.137876538271898504E-31, 0.0000000000000000000, 6.123121766362532060E-17 ) ) ;
#172 = DIRECTION ( 'NONE',  ( 1.000000000000000000, 0.0000000000000000000, -4.625929269271485322E-15 ) ) ;
#173 = EDGE_CURVE ( 'NONE', #45, #45, #9, .T. ) ;
#174 = FACE_OUTER_BOUND ( 'NONE', #18, .T. ) ;
#175 = CARTESIAN_POINT ( 'NONE',  ( 1.902857329669507616E-13, 0.0000000000000000000, 54.50000000000000000 ) ) ;
#176 = DATE_AND_TIME ( #139, #164 ) ;
#177 = ADVANCED_FACE ( 'NONE', ( #118 ), #79, .T. ) ;
#178 = APPROVAL_DATE_TIME ( #176, #161 ) ;
#179 = MANIFOLD_SOLID_BREP ( 'Corps-Déplacer/Copier1[2]', #42 ) ;
#180 = COORDINATED_UNIVERSAL_TIME_OFFSET ( 1, 0, .AHEAD. ) ;
#181 = AXIS2_PLACEMENT_3D ( 'NONE', #26, #96, #94 ) ;
#182 = ORIENTED_EDGE ( 'NONE', *, *, #228, .F. ) ;
#183 = APPROVAL_DATE_TIME ( #73, #17 ) ;
#184 = SECURITY_CLASSIFICATION_LEVEL ( 'unclassified' ) ;
#185 = DIRECTION ( 'NONE',  ( 3.491481338843133355E-15, -0.0000000000000000000, 1.000000000000000000 ) ) ;
#186 = DIRECTION ( 'NONE',  ( -1.000000000000000000, 0.0000000000000000000, 3.491481338843133355E-15 ) ) ;
#187 = FACE_OUTER_BOUND ( 'NONE', #198, .T. ) ;
#188 = DIRECTION ( 'NONE',  ( 3.491481338843133355E-15, -0.0000000000000000000, 1.000000000000000000 ) ) ;
#189 = CARTESIAN_POINT ( 'NONE',  ( 0.0000000000000000000, 0.0000000000000000000, 0.0000000000000000000 ) ) ;
#190 =( LENGTH_UNIT ( ) NAMED_UNIT ( * ) SI_UNIT ( .MILLI., .METRE. ) );
#191 = CARTESIAN_POINT ( 'NONE',  ( 1.500000000000015099, 0.0000000000000000000, 4.499999999999994671 ) ) ;
#192 = VERTEX_POINT ( 'NONE', #234 ) ;
#193 = CC_DESIGN_SECURITY_CLASSIFICATION ( #223, ( #227 ) ) ;
#194 = APPROVAL_ROLE ( '' ) ;
#195 = ORIENTED_EDGE ( 'NONE', *, *, #3, .F. ) ;
#196 = CC_DESIGN_DATE_AND_TIME_ASSIGNMENT ( #143, #211, ( #122 ) ) ;
#197 = AXIS2_PLACEMENT_3D ( 'NONE', #38, #225, #56 ) ;
#198 = EDGE_LOOP ( 'NONE', ( #51 ) ) ;
#199 = APPROVAL_STATUS ( 'not_yet_approved' ) ;
#200 = ORIENTED_EDGE ( 'NONE', *, *, #3, .T. ) ;
#201 = ADVANCED_FACE ( 'NONE', ( #134 ), #39, .T. ) ;
#202 = DIRECTION ( 'NONE',  ( 1.000000000000000000, 0.0000000000000000000, -3.491481338843133355E-15 ) ) ;
#203 = LOCAL_TIME ( 7, 59, 45.00000000000000000, #12 ) ;
#204 = DIRECTION ( 'NONE',  ( -3.491481338843133355E-15, 0.0000000000000000000, -1.000000000000000000 ) ) ;
#205 = DIRECTION ( 'NONE',  ( 1.000000000000000000, 0.0000000000000000000, -2.775557561562891351E-15 ) ) ;
#206 = DIRECTION ( 'NONE',  ( 1.000000000000000000, 0.0000000000000000000, -3.469446951953615372E-15 ) ) ;
#207 = AXIS2_PLACEMENT_3D ( 'NONE', #175, #152, #172 ) ;
#208 = DIRECTION ( 'NONE',  ( 3.491481338843133355E-15, -0.0000000000000000000, 1.000000000000000000 ) ) ;
#209 = PERSON_AND_ORGANIZATION_ROLE ( 'design_owner' ) ;
#210 = PRODUCT_RELATED_PRODUCT_CATEGORY ( 'detail', '', ( #218 ) ) ;
#211 = DATE_TIME_ROLE ( 'creation_date' ) ;
#212 = APPROVAL_PERSON_ORGANIZATION ( #101, #161, #15 ) ;
#213 = CARTESIAN_POINT ( 'NONE',  ( 1.920314736363723472E-13, 0.0000000000000000000, 55.00000000000000000 ) ) ;
#214 = PERSON_AND_ORGANIZATION ( #67, #82 ) ;
#215 = EDGE_CURVE ( 'NONE', #61, #61, #19, .T. ) ;
#216 = VERTEX_POINT ( 'NONE', #237 ) ;
#217 = PERSON_AND_ORGANIZATION ( #67, #82 ) ;
#218 = PRODUCT ( '334934', '334934', '', ( #64 ) ) ;
#219 = ORIENTED_EDGE ( 'NONE', *, *, #153, .F. ) ;
#220 = COORDINATED_UNIVERSAL_TIME_OFFSET ( 1, 0, .AHEAD. ) ;
#221 = CALENDAR_DATE ( 2021, 9, 11 ) ;
#222 = CIRCLE ( 'NONE', #68, 2.500000000000000000 ) ;
#223 = SECURITY_CLASSIFICATION ( '', '', #184 ) ;
#224 = FACE_BOUND ( 'NONE', #32, .T. ) ;
#225 = DIRECTION ( 'NONE',  ( -3.491481338843133355E-15, 0.0000000000000000000, -1.000000000000000000 ) ) ;
#226 = CONICAL_SURFACE ( 'NONE', #241, 3.000000000000000000, 0.2617993877991428575 ) ;
#227 = PRODUCT_DEFINITION_FORMATION_WITH_SPECIFIED_SOURCE ( 'ANY', '', #218, .NOT_KNOWN. ) ;
#228 = EDGE_CURVE ( 'NONE', #192, #192, #158, .T. ) ;
#229 = FACE_OUTER_BOUND ( 'NONE', #104, .T. ) ;
#230 = APPLICATION_CONTEXT ( 'configuration controlled 3d designs of mechanical parts and assemblies' ) ;
#231 = DIRECTION ( 'NONE',  ( 1.000000000000000000, 0.0000000000000000000, -3.491481338843133355E-15 ) ) ;
#232 = CYLINDRICAL_SURFACE ( 'NONE', #72, 1.500000000000000000 ) ;
#233 = DIRECTION ( 'NONE',  ( 1.000000000000000000, 0.0000000000000000000, 0.0000000000000000000 ) ) ;
#234 = CARTESIAN_POINT ( 'NONE',  ( 1.500000000000000444, 0.0000000000000000000, -5.114759572937450969E-15 ) ) ;
#235 =( NAMED_UNIT ( * ) PLANE_ANGLE_UNIT ( ) SI_UNIT ( $, .RADIAN. ) );
#236 = AXIS2_PLACEMENT_3D ( 'NONE', #156, #136, #206 ) ;
#237 = CARTESIAN_POINT ( 'NONE',  ( 3.000000000000035971, 0.0000000000000000000, 10.36138120652823780 ) ) ;
#238 = DATE_AND_TIME ( #83, #29 ) ;
#239 = EDGE_LOOP ( 'NONE', ( #108 ) ) ;
#240 = UNCERTAINTY_MEASURE_WITH_UNIT (LENGTH_MEASURE( 1.000000000000000082E-05 ), #190, 'distance_accuracy_value', 'NONE');
#241 = AXIS2_PLACEMENT_3D ( 'NONE', #58, #77, #78 ) ;
#242 = EDGE_LOOP ( 'NONE', ( #88 ) ) ;
#243 = ADVANCED_FACE ( 'NONE', ( #174 ), #47, .T. ) ;
ENDSEC;
END-ISO-10303-21;
