ISO-10303-21;
HEADER;
FILE_DESCRIPTION (( 'STEP AP203' ),
    '1' );
FILE_NAME ('334933.step',
    '2021-11-09T06:59:45',
    ( '' ),
    ( '' ),
    'SwSTEP 2.0',
    'SolidWorks 2019',
    '' );
FILE_SCHEMA (( 'CONFIG_CONTROL_DESIGN' ));
ENDSEC;

DATA;
#1 = CARTESIAN_POINT ( 'NONE',  ( 0.0000000000000000000, 0.0000000000000000000, 0.0000000000000000000 ) ) ;
#2 = APPROVAL_DATE_TIME ( #131, #75 ) ;
#3 = DIRECTION ( 'NONE',  ( -3.491481338843133355E-15, 0.0000000000000000000, -1.000000000000000000 ) ) ;
#4 = AXIS2_PLACEMENT_3D ( 'NONE', #174, #127, #130 ) ;
#5 = CARTESIAN_POINT ( 'NONE',  ( 1.309305502066175008E-14, -8.131516293641280297E-16, 3.750000000000000000 ) ) ;
#6 = MANIFOLD_SOLID_BREP ( 'Corps-Déplacer/Copier1[1]', #24 ) ;
#7 = CIRCLE ( 'NONE', #59, 1.600000000000000089 ) ;
#8 = CC_DESIGN_PERSON_AND_ORGANIZATION_ASSIGNMENT ( #101, #214, ( #61 ) ) ;
#9 = APPROVAL ( #195, 'UNSPECIFIED' ) ;
#10 = CALENDAR_DATE ( 2021, 9, 11 ) ;
#11 = ORIENTED_EDGE ( 'NONE', *, *, #141, .T. ) ;
#12 = AXIS2_PLACEMENT_3D ( 'NONE', #108, #121, #163 ) ;
#13 = APPROVAL_ROLE ( '' ) ;
#14 = FACE_OUTER_BOUND ( 'NONE', #202, .T. ) ;
#15 = CALENDAR_DATE ( 2021, 9, 11 ) ;
#16 = PERSON_AND_ORGANIZATION ( #193, #106 ) ;
#17 = AXIS2_PLACEMENT_3D ( 'NONE', #167, #240, #196 ) ;
#18 = PERSON_AND_ORGANIZATION ( #193, #106 ) ;
#19 = FACE_OUTER_BOUND ( 'NONE', #32, .T. ) ;
#20 = VERTEX_POINT ( 'NONE', #154 ) ;
#21 = CARTESIAN_POINT ( 'NONE',  ( 1.326762908760390423E-13, 0.0000000000000000000, 38.00000000000000000 ) ) ;
#22 = CC_DESIGN_APPROVAL ( #75, ( #54 ) ) ;
#23 = APPLICATION_CONTEXT ( 'configuration controlled 3d designs of mechanical parts and assemblies' ) ;
#24 = CLOSED_SHELL ( 'NONE', ( #120, #182, #97, #100, #165, #151 ) ) ;
#25 = CC_DESIGN_PERSON_AND_ORGANIZATION_ASSIGNMENT ( #83, #143, ( #61 ) ) ;
#26 = AXIS2_PLACEMENT_3D ( 'NONE', #207, #169, #152 ) ;
#27 = PERSON_AND_ORGANIZATION ( #193, #106 ) ;
#28 = FACE_OUTER_BOUND ( 'NONE', #146, .T. ) ;
#29 = DIRECTION ( 'NONE',  ( 1.000000000000000000, 0.0000000000000000000, -3.491481338843132961E-15 ) ) ;
#30 = LOCAL_TIME ( 7, 59, 45.00000000000000000, #149 ) ;
#31 = EDGE_LOOP ( 'NONE', ( #176 ) ) ;
#32 = EDGE_LOOP ( 'NONE', ( #51 ) ) ;
#33 = APPLICATION_PROTOCOL_DEFINITION ( 'international standard', 'config_control_design', 1994, #23 ) ;
#34 = ORIENTED_EDGE ( 'NONE', *, *, #71, .F. ) ;
#35 = SHAPE_DEFINITION_REPRESENTATION ( #129, #46 ) ;
#36 = DIRECTION ( 'NONE',  ( -1.000000000000000000, 0.0000000000000000000, 3.491481338843133355E-15 ) ) ;
#37 = VERTEX_POINT ( 'NONE', #74 ) ;
#38 = CARTESIAN_POINT ( 'NONE',  ( 1.312796983405018142E-13, 0.0000000000000000000, 37.60000000000000142 ) ) ;
#39 = DIRECTION ( 'NONE',  ( 3.491481338843133355E-15, -0.0000000000000000000, 1.000000000000000000 ) ) ;
#40 = AXIS2_PLACEMENT_3D ( 'NONE', #135, #3, #191 ) ;
#41 = AXIS2_PLACEMENT_3D ( 'NONE', #179, #67, #62 ) ;
#42 = ORIENTED_EDGE ( 'NONE', *, *, #230, .T. ) ;
#43 =( LENGTH_UNIT ( ) NAMED_UNIT ( * ) SI_UNIT ( .MILLI., .METRE. ) );
#44 = PERSON_AND_ORGANIZATION ( #193, #106 ) ;
#45 = CYLINDRICAL_SURFACE ( 'NONE', #226, 2.000000000000000000 ) ;
#46 = ADVANCED_BREP_SHAPE_REPRESENTATION ( '334933', ( #6, #80, #4 ), #172 ) ;
#47 = CONICAL_SURFACE ( 'NONE', #241, 1.600000000000000089, 0.7853981633974512766 ) ;
#48 = CARTESIAN_POINT ( 'NONE',  ( 2.000000000000023981, 0.0000000000000000000, 6.812343100851509625 ) ) ;
#49 = DIRECTION ( 'NONE',  ( 3.491481338843133355E-15, -0.0000000000000000000, 1.000000000000000000 ) ) ;
#50 = DATE_AND_TIME ( #10, #133 ) ;
#51 = ORIENTED_EDGE ( 'NONE', *, *, #190, .F. ) ;
#52 = CALENDAR_DATE ( 2021, 9, 11 ) ;
#53 = PLANE ( 'NONE',  #40 ) ;
#54 = SECURITY_CLASSIFICATION ( '', '', #216 ) ;
#55 = DIRECTION ( 'NONE',  ( 1.000000000000000000, 0.0000000000000000000, -3.469446951953614189E-15 ) ) ;
#56 = CARTESIAN_POINT ( 'NONE',  ( 1.250000000000012434, 0.0000000000000000000, 3.749999999999995115 ) ) ;
#57 = APPLICATION_CONTEXT ( 'configuration controlled 3d designs of mechanical parts and assemblies' ) ;
#58 = DIRECTION ( 'NONE',  ( 1.000000000000000000, 0.0000000000000000000, -4.336808689942017736E-15 ) ) ;
#59 = AXIS2_PLACEMENT_3D ( 'NONE', #21, #225, #58 ) ;
#60 = EDGE_LOOP ( 'NONE', ( #11 ) ) ;
#61 = PRODUCT_DEFINITION_FORMATION_WITH_SPECIFIED_SOURCE ( 'ANY', '', #66, .NOT_KNOWN. ) ;
#62 = DIRECTION ( 'NONE',  ( -1.000000000000000000, 0.0000000000000000000, 3.491481338843133355E-15 ) ) ;
#63 = APPROVAL ( #107, 'UNSPECIFIED' ) ;
#64 = APPROVAL_DATE_TIME ( #212, #63 ) ;
#65 = CARTESIAN_POINT ( 'NONE',  ( -9.831781012932406109E-37, 0.0000000000000000000, -2.815934000148506281E-22 ) ) ;
#66 = PRODUCT ( '334933', '334933', '', ( #104 ) ) ;
#67 = DIRECTION ( 'NONE',  ( -3.491481338843133355E-15, 0.0000000000000000000, -1.000000000000000000 ) ) ;
#68 = ORIENTED_EDGE ( 'NONE', *, *, #141, .F. ) ;
#69 = CALENDAR_DATE ( 2021, 9, 11 ) ;
#70 = FACE_OUTER_BOUND ( 'NONE', #184, .T. ) ;
#71 = EDGE_CURVE ( 'NONE', #37, #37, #153, .T. ) ;
#72 = DIRECTION ( 'NONE',  ( 1.000000000000000000, 0.0000000000000000000, -3.491481338843133355E-15 ) ) ;
#73 = CIRCLE ( 'NONE', #210, 2.000000000000000000 ) ;
#74 = CARTESIAN_POINT ( 'NONE',  ( 1.318148347421874256, 0.0000000000000000000, 4.267638090205021939 ) ) ;
#75 = APPROVAL ( #223, 'UNSPECIFIED' ) ;
#76 = CARTESIAN_POINT ( 'NONE',  ( 2.378516881041983426E-14, 0.0000000000000000000, 6.812343100851516731 ) ) ;
#77 = TOROIDAL_SURFACE ( 'NONE', #117, 3.250000000000000000, 2.000000000000000000 ) ;
#78 = CC_DESIGN_SECURITY_CLASSIFICATION ( #54, ( #61 ) ) ;
#79 = COORDINATED_UNIVERSAL_TIME_OFFSET ( 1, 0, .AHEAD. ) ;
#80 = MANIFOLD_SOLID_BREP ( 'Corps-Déplacer/Copier1[2]', #82 ) ;
#81 = PLANE ( 'NONE',  #41 ) ;
#82 = CLOSED_SHELL ( 'NONE', ( #98, #213, #208 ) ) ;
#83 = PERSON_AND_ORGANIZATION ( #193, #106 ) ;
#84 = ORIENTED_EDGE ( 'NONE', *, *, #232, .T. ) ;
#85 = DATE_AND_TIME ( #15, #234 ) ;
#86 = ORIENTED_EDGE ( 'NONE', *, *, #138, .T. ) ;
#87 =( NAMED_UNIT ( * ) PLANE_ANGLE_UNIT ( ) SI_UNIT ( $, .RADIAN. ) );
#88 = ORIENTED_EDGE ( 'NONE', *, *, #71, .T. ) ;
#89 = CIRCLE ( 'NONE', #112, 1.249999999999999334 ) ;
#90 = APPROVAL_ROLE ( '' ) ;
#91 = EDGE_LOOP ( 'NONE', ( #34 ) ) ;
#92 = DIRECTION ( 'NONE',  ( 1.000000000000000000, 0.0000000000000000000, -3.469446951953614189E-15 ) ) ;
#93 = CARTESIAN_POINT ( 'NONE',  ( 1.309305502066174850E-14, 0.0000000000000000000, 3.749999999999999556 ) ) ;
#94 = CONICAL_SURFACE ( 'NONE', #211, 2.000000000000000000, 0.2617993877991428575 ) ;
#95 = FACE_BOUND ( 'NONE', #128, .T. ) ;
#96 = PERSON_AND_ORGANIZATION ( #193, #106 ) ;
#97 = ADVANCED_FACE ( 'NONE', ( #203 ), #140, .T. ) ;
#98 = ADVANCED_FACE ( 'NONE', ( #28 ), #81, .T. ) ;
#99 = LOCAL_TIME ( 7, 59, 45.00000000000000000, #79 ) ;
#100 = ADVANCED_FACE ( 'NONE', ( #215, #220 ), #77, .F. ) ;
#101 = PERSON_AND_ORGANIZATION ( #193, #106 ) ;
#102 = ORIENTED_EDGE ( 'NONE', *, *, #192, .F. ) ;
#103 = CC_DESIGN_PERSON_AND_ORGANIZATION_ASSIGNMENT ( #16, #180, ( #66 ) ) ;
#104 = MECHANICAL_CONTEXT ( 'NONE', #23, 'mechanical' ) ;
#105 = FACE_OUTER_BOUND ( 'NONE', #109, .T. ) ;
#106 = ORGANIZATION ( 'UNSPECIFIED', 'UNSPECIFIED', '' ) ;
#107 = APPROVAL_STATUS ( 'not_yet_approved' ) ;
#108 = CARTESIAN_POINT ( 'NONE',  ( 1.490037875288699857E-14, 0.0000000000000000000, 4.267638090205026380 ) ) ;
#109 = EDGE_LOOP ( 'NONE', ( #68 ) ) ;
#110 = DATE_TIME_ROLE ( 'creation_date' ) ;
#111 = EDGE_LOOP ( 'NONE', ( #159 ) ) ;
#112 = AXIS2_PLACEMENT_3D ( 'NONE', #93, #168, #204 ) ;
#113 = PLANE ( 'NONE',  #175 ) ;
#114 = VERTEX_POINT ( 'NONE', #186 ) ;
#115 = FACE_OUTER_BOUND ( 'NONE', #148, .T. ) ;
#116 = DIRECTION ( 'NONE',  ( 3.491481338843133355E-15, -0.0000000000000000000, 1.000000000000000000 ) ) ;
#117 = AXIS2_PLACEMENT_3D ( 'NONE', #123, #198, #29 ) ;
#118 = UNCERTAINTY_MEASURE_WITH_UNIT (LENGTH_MEASURE( 1.000000000000000082E-05 ), #43, 'distance_accuracy_value', 'NONE');
#119 = AXIS2_PLACEMENT_3D ( 'NONE', #38, #116, #92 ) ;
#120 = ADVANCED_FACE ( 'NONE', ( #105, #14 ), #45, .T. ) ;
#121 = DIRECTION ( 'NONE',  ( 3.491481338843133355E-15, -0.0000000000000000000, 1.000000000000000000 ) ) ;
#122 = PERSON_AND_ORGANIZATION_ROLE ( 'creator' ) ;
#123 = CARTESIAN_POINT ( 'NONE',  ( 1.309305502066175008E-14, 0.0000000000000000000, 3.750000000000000000 ) ) ;
#124 = PERSON_AND_ORGANIZATION_ROLE ( 'classification_officer' ) ;
#125 = EDGE_LOOP ( 'NONE', ( #86 ) ) ;
#126 = CIRCLE ( 'NONE', #194, 1.249999999999999778 ) ;
#127 = DIRECTION ( 'NONE',  ( 0.0000000000000000000, 0.0000000000000000000, 1.000000000000000000 ) ) ;
#128 = EDGE_LOOP ( 'NONE', ( #102 ) ) ;
#129 = PRODUCT_DEFINITION_SHAPE ( 'NONE', 'NONE',  #209 ) ;
#130 = DIRECTION ( 'NONE',  ( 1.000000000000000000, 0.0000000000000000000, 0.0000000000000000000 ) ) ;
#131 = DATE_AND_TIME ( #52, #30 ) ;
#132 = DIRECTION ( 'NONE',  ( -3.491481338843133355E-15, 0.0000000000000000000, -1.000000000000000000 ) ) ;
#133 = LOCAL_TIME ( 7, 59, 45.00000000000000000, #197 ) ;
#134 = DIRECTION ( 'NONE',  ( 3.491481338843133355E-15, -0.0000000000000000000, 1.000000000000000000 ) ) ;
#135 = CARTESIAN_POINT ( 'NONE',  ( 1.309305502066175008E-14, -8.131516293641280297E-16, 3.750000000000000000 ) ) ;
#136 = CARTESIAN_POINT ( 'NONE',  ( 2.378516881041983426E-14, 0.0000000000000000000, 6.812343100851516731 ) ) ;
#137 = CC_DESIGN_APPROVAL ( #9, ( #209 ) ) ;
#138 = EDGE_CURVE ( 'NONE', #114, #114, #126, .T. ) ;
#139 = CC_DESIGN_PERSON_AND_ORGANIZATION_ASSIGNMENT ( #27, #122, ( #209 ) ) ;
#140 = PLANE ( 'NONE',  #17 ) ;
#141 = EDGE_CURVE ( 'NONE', #20, #20, #156, .T. ) ;
#142 = EDGE_LOOP ( 'NONE', ( #42 ) ) ;
#143 = PERSON_AND_ORGANIZATION_ROLE ( 'design_supplier' ) ;
#144 = DIRECTION ( 'NONE',  ( 3.491481338843133355E-15, -0.0000000000000000000, 1.000000000000000000 ) ) ;
#145 = CARTESIAN_POINT ( 'NONE',  ( 1.250000000000012434, 0.0000000000000000000, 3.749999999999995115 ) ) ;
#146 = EDGE_LOOP ( 'NONE', ( #173 ) ) ;
#147 = CALENDAR_DATE ( 2021, 9, 11 ) ;
#148 = EDGE_LOOP ( 'NONE', ( #235 ) ) ;
#149 = COORDINATED_UNIVERSAL_TIME_OFFSET ( 1, 0, .AHEAD. ) ;
#150 = DIRECTION ( 'NONE',  ( 1.000000000000000000, 0.0000000000000000000, -3.469446951953614189E-15 ) ) ;
#151 = ADVANCED_FACE ( 'NONE', ( #115 ), #53, .T. ) ;
#152 = DIRECTION ( 'NONE',  ( 1.000000000000000000, 0.0000000000000000000, -3.469446951953616161E-15 ) ) ;
#153 = CIRCLE ( 'NONE', #12, 1.318148347421859379 ) ;
#154 = CARTESIAN_POINT ( 'NONE',  ( 2.000000000000131450, 0.0000000000000000000, 37.59999999999999432 ) ) ;
#155 = DIRECTION ( 'NONE',  ( -3.491481338843133355E-15, 0.0000000000000000000, -1.000000000000000000 ) ) ;
#156 = CIRCLE ( 'NONE', #119, 2.000000000000000000 ) ;
#157 = CARTESIAN_POINT ( 'NONE',  ( 1.600000000000132871, 0.0000000000000000000, 37.99999999999999289 ) ) ;
#158 = AXIS2_PLACEMENT_3D ( 'NONE', #1, #205, #72 ) ;
#159 = ORIENTED_EDGE ( 'NONE', *, *, #192, .T. ) ;
#160 = APPROVAL_DATE_TIME ( #221, #9 ) ;
#161 = CARTESIAN_POINT ( 'NONE',  ( 0.0000000000000000000, 0.0000000000000000000, 0.0000000000000000000 ) ) ;
#162 = DATE_TIME_ROLE ( 'classification_date' ) ;
#163 = DIRECTION ( 'NONE',  ( 1.000000000000000000, 0.0000000000000000000, -3.290076339604944648E-15 ) ) ;
#164 = CC_DESIGN_APPROVAL ( #63, ( #61 ) ) ;
#165 = ADVANCED_FACE ( 'NONE', ( #243, #70 ), #94, .T. ) ;
#166 =( NAMED_UNIT ( * ) SI_UNIT ( $, .STERADIAN. ) SOLID_ANGLE_UNIT ( ) );
#167 = CARTESIAN_POINT ( 'NONE',  ( 1.326762908760390423E-13, 0.0000000000000000000, 38.00000000000000000 ) ) ;
#168 = DIRECTION ( 'NONE',  ( 3.491481338843133355E-15, -0.0000000000000000000, 1.000000000000000000 ) ) ;
#169 = DIRECTION ( 'NONE',  ( 3.491481338843133355E-15, -0.0000000000000000000, 1.000000000000000000 ) ) ;
#170 = FACE_OUTER_BOUND ( 'NONE', #31, .T. ) ;
#171 = APPROVAL_PERSON_ORGANIZATION ( #183, #9, #90 ) ;
#172 =( GEOMETRIC_REPRESENTATION_CONTEXT ( 3 ) GLOBAL_UNCERTAINTY_ASSIGNED_CONTEXT ( ( #118 ) ) GLOBAL_UNIT_ASSIGNED_CONTEXT ( ( #43, #87, #166 ) ) REPRESENTATION_CONTEXT ( 'NONE', 'WORKASPACE' ) );
#173 = ORIENTED_EDGE ( 'NONE', *, *, #138, .F. ) ;
#174 = CARTESIAN_POINT ( 'NONE',  ( 0.0000000000000000000, 0.0000000000000000000, 0.0000000000000000000 ) ) ;
#175 = AXIS2_PLACEMENT_3D ( 'NONE', #5, #155, #36 ) ;
#176 = ORIENTED_EDGE ( 'NONE', *, *, #190, .T. ) ;
#177 = CC_DESIGN_DATE_AND_TIME_ASSIGNMENT ( #50, #110, ( #209 ) ) ;
#178 = COORDINATED_UNIVERSAL_TIME_OFFSET ( 1, 0, .AHEAD. ) ;
#179 = CARTESIAN_POINT ( 'NONE',  ( -4.915890506466203054E-37, 0.0000000000000000000, -1.407967000074253141E-22 ) ) ;
#180 = PERSON_AND_ORGANIZATION_ROLE ( 'design_owner' ) ;
#181 = EDGE_LOOP ( 'NONE', ( #88 ) ) ;
#182 = ADVANCED_FACE ( 'NONE', ( #187, #95 ), #47, .T. ) ;
#183 = PERSON_AND_ORGANIZATION ( #193, #106 ) ;
#184 = EDGE_LOOP ( 'NONE', ( #222 ) ) ;
#185 = FACE_OUTER_BOUND ( 'NONE', #125, .T. ) ;
#186 = CARTESIAN_POINT ( 'NONE',  ( 1.249999999999999778, 0.0000000000000000000, -4.364351955147316276E-15 ) ) ;
#187 = FACE_OUTER_BOUND ( 'NONE', #60, .T. ) ;
#188 = APPROVAL_PERSON_ORGANIZATION ( #96, #75, #189 ) ;
#189 = APPROVAL_ROLE ( '' ) ;
#190 = EDGE_CURVE ( 'NONE', #228, #228, #89, .T. ) ;
#191 = DIRECTION ( 'NONE',  ( -1.000000000000000000, 0.0000000000000000000, 3.491481338843133355E-15 ) ) ;
#192 = EDGE_CURVE ( 'NONE', #237, #237, #7, .T. ) ;
#193 = PERSON ( 'UNSPECIFIED', 'UNSPECIFIED', 'UNSPECIFIED', ('UNSPECIFIED'), ('UNSPECIFIED'), ('UNSPECIFIED') ) ;
#194 = AXIS2_PLACEMENT_3D ( 'NONE', #65, #144, #217 ) ;
#195 = APPROVAL_STATUS ( 'not_yet_approved' ) ;
#196 = DIRECTION ( 'NONE',  ( 1.000000000000000000, 0.0000000000000000000, -3.491481338843133355E-15 ) ) ;
#197 = COORDINATED_UNIVERSAL_TIME_OFFSET ( 1, 0, .AHEAD. ) ;
#198 = DIRECTION ( 'NONE',  ( 3.491481338843133355E-15, -0.0000000000000000000, 1.000000000000000000 ) ) ;
#199 = PRODUCT_RELATED_PRODUCT_CATEGORY ( 'detail', '', ( #66 ) ) ;
#200 = APPLICATION_PROTOCOL_DEFINITION ( 'international standard', 'config_control_design', 1994, #57 ) ;
#201 = APPROVAL_PERSON_ORGANIZATION ( #18, #63, #13 ) ;
#202 = EDGE_LOOP ( 'NONE', ( #84 ) ) ;
#203 = FACE_OUTER_BOUND ( 'NONE', #111, .T. ) ;
#204 = DIRECTION ( 'NONE',  ( 1.000000000000000000, 0.0000000000000000000, -3.469446951953616161E-15 ) ) ;
#205 = DIRECTION ( 'NONE',  ( 3.491481338843133355E-15, -0.0000000000000000000, 1.000000000000000000 ) ) ;
#206 = CARTESIAN_POINT ( 'NONE',  ( 1.326762908760390423E-13, 0.0000000000000000000, 38.00000000000000000 ) ) ;
#207 = CARTESIAN_POINT ( 'NONE',  ( 1.309305502066174850E-14, 0.0000000000000000000, 3.749999999999999556 ) ) ;
#208 = ADVANCED_FACE ( 'NONE', ( #170 ), #113, .F. ) ;
#209 = PRODUCT_DEFINITION ( 'UNKNOWN', '', #61, #236 ) ;
#210 = AXIS2_PLACEMENT_3D ( 'NONE', #136, #134, #55 ) ;
#211 = AXIS2_PLACEMENT_3D ( 'NONE', #76, #39, #150 ) ;
#212 = DATE_AND_TIME ( #69, #231 ) ;
#213 = ADVANCED_FACE ( 'NONE', ( #185, #19 ), #229, .T. ) ;
#214 = PERSON_AND_ORGANIZATION_ROLE ( 'creator' ) ;
#215 = FACE_OUTER_BOUND ( 'NONE', #142, .T. ) ;
#216 = SECURITY_CLASSIFICATION_LEVEL ( 'unclassified' ) ;
#217 = DIRECTION ( 'NONE',  ( 1.000000000000000000, 0.0000000000000000000, -3.491481338843133355E-15 ) ) ;
#218 = VERTEX_POINT ( 'NONE', #145 ) ;
#219 = CIRCLE ( 'NONE', #26, 1.249999999999999334 ) ;
#220 = FACE_OUTER_BOUND ( 'NONE', #91, .T. ) ;
#221 = DATE_AND_TIME ( #147, #99 ) ;
#222 = ORIENTED_EDGE ( 'NONE', *, *, #232, .F. ) ;
#223 = APPROVAL_STATUS ( 'not_yet_approved' ) ;
#224 = DIRECTION ( 'NONE',  ( -1.000000000000000000, 0.0000000000000000000, 4.336808689942017736E-15 ) ) ;
#225 = DIRECTION ( 'NONE',  ( 3.491481338843133355E-15, -0.0000000000000000000, 1.000000000000000000 ) ) ;
#226 = AXIS2_PLACEMENT_3D ( 'NONE', #161, #49, #238 ) ;
#227 = CC_DESIGN_PERSON_AND_ORGANIZATION_ASSIGNMENT ( #44, #124, ( #54 ) ) ;
#228 = VERTEX_POINT ( 'NONE', #56 ) ;
#229 = CYLINDRICAL_SURFACE ( 'NONE', #158, 1.249999999999999556 ) ;
#230 = EDGE_CURVE ( 'NONE', #218, #218, #219, .T. ) ;
#231 = LOCAL_TIME ( 7, 59, 45.00000000000000000, #242 ) ;
#232 = EDGE_CURVE ( 'NONE', #239, #239, #73, .T. ) ;
#233 = CC_DESIGN_DATE_AND_TIME_ASSIGNMENT ( #85, #162, ( #54 ) ) ;
#234 = LOCAL_TIME ( 7, 59, 45.00000000000000000, #178 ) ;
#235 = ORIENTED_EDGE ( 'NONE', *, *, #230, .F. ) ;
#236 = DESIGN_CONTEXT ( 'detailed design', #57, 'design' ) ;
#237 = VERTEX_POINT ( 'NONE', #157 ) ;
#238 = DIRECTION ( 'NONE',  ( 1.000000000000000000, 0.0000000000000000000, -3.491481338843133355E-15 ) ) ;
#239 = VERTEX_POINT ( 'NONE', #48 ) ;
#240 = DIRECTION ( 'NONE',  ( 3.491481338843133355E-15, -0.0000000000000000000, 1.000000000000000000 ) ) ;
#241 = AXIS2_PLACEMENT_3D ( 'NONE', #206, #132, #224 ) ;
#242 = COORDINATED_UNIVERSAL_TIME_OFFSET ( 1, 0, .AHEAD. ) ;
#243 = FACE_BOUND ( 'NONE', #181, .T. ) ;
ENDSEC;
END-ISO-10303-21;
