ISO-10303-21;
HEADER;
FILE_DESCRIPTION (( 'STEP AP203' ),
    '1' );
FILE_NAME ('334931.step',
    '2021-11-09T06:59:44',
    ( '' ),
    ( '' ),
    'SwSTEP 2.0',
    'SolidWorks 2019',
    '' );
FILE_SCHEMA (( 'CONFIG_CONTROL_DESIGN' ));
ENDSEC;

DATA;
#1 = ORIENTED_EDGE ( 'NONE', *, *, #82, .T. ) ;
#2 = EDGE_LOOP ( 'NONE', ( #31 ) ) ;
#3 = ADVANCED_FACE ( 'NONE', ( #152 ), #227, .T. ) ;
#4 = FACE_OUTER_BOUND ( 'NONE', #229, .T. ) ;
#5 = AXIS2_PLACEMENT_3D ( 'NONE', #60, #43, #80 ) ;
#6 = CYLINDRICAL_SURFACE ( 'NONE', #47, 2.000000000000000000 ) ;
#7 = CARTESIAN_POINT ( 'NONE',  ( 2.000000000000024869, 0.0000000000000000000, 7.031958343122203914 ) ) ;
#8 = TOROIDAL_SURFACE ( 'NONE', #188, 2.949999999999999734, 2.000000000000000000 ) ;
#9 = CARTESIAN_POINT ( 'NONE',  ( 0.9500000000000093925, 0.0000000000000000000, 2.849999999999996092 ) ) ;
#10 = DATE_AND_TIME ( #96, #94 ) ;
#11 = ADVANCED_FACE ( 'NONE', ( #177, #4 ), #242, .T. ) ;
#12 = AXIS2_PLACEMENT_3D ( 'NONE', #122, #24, #183 ) ;
#13 = ORIENTED_EDGE ( 'NONE', *, *, #207, .T. ) ;
#14 = AXIS2_PLACEMENT_3D ( 'NONE', #196, #139, #101 ) ;
#15 = ORIENTED_EDGE ( 'NONE', *, *, #127, .T. ) ;
#16 = ORIENTED_EDGE ( 'NONE', *, *, #28, .T. ) ;
#17 = ORGANIZATION ( 'UNSPECIFIED', 'UNSPECIFIED', '' ) ;
#18 = CC_DESIGN_PERSON_AND_ORGANIZATION_ASSIGNMENT ( #159, #29, ( #90 ) ) ;
#19 = DIRECTION ( 'NONE',  ( -1.000000000000000000, 0.0000000000000000000, 3.491481338843133355E-15 ) ) ;
#20 = PLANE ( 'NONE',  #81 ) ;
#21 = DIRECTION ( 'NONE',  ( 3.491481338843133355E-15, -0.0000000000000000000, 1.000000000000000000 ) ) ;
#22 = AXIS2_PLACEMENT_3D ( 'NONE', #74, #52, #223 ) ;
#23 = FACE_OUTER_BOUND ( 'NONE', #133, .T. ) ;
#24 = DIRECTION ( 'NONE',  ( 3.491481338843133355E-15, -0.0000000000000000000, 1.000000000000000000 ) ) ;
#25 = DIRECTION ( 'NONE',  ( 3.491481338843133355E-15, -0.0000000000000000000, 1.000000000000000000 ) ) ;
#26 = CARTESIAN_POINT ( 'NONE',  ( 1.600000000000132871, 0.0000000000000000000, 37.99999999999999289 ) ) ;
#27 = AXIS2_PLACEMENT_3D ( 'NONE', #134, #118, #178 ) ;
#28 = EDGE_CURVE ( 'NONE', #218, #218, #131, .T. ) ;
#29 = PERSON_AND_ORGANIZATION_ROLE ( 'design_owner' ) ;
#30 = APPROVAL_STATUS ( 'not_yet_approved' ) ;
#31 = ORIENTED_EDGE ( 'NONE', *, *, #119, .T. ) ;
#32 = PRODUCT_DEFINITION_SHAPE ( 'NONE', 'NONE',  #83 ) ;
#33 = CC_DESIGN_APPROVAL ( #184, ( #160 ) ) ;
#34 = CC_DESIGN_DATE_AND_TIME_ASSIGNMENT ( #129, #147, ( #83 ) ) ;
#35 = MANIFOLD_SOLID_BREP ( 'Corps-Déplacer/Copier1[2]', #202 ) ;
#36 = ADVANCED_FACE ( 'NONE', ( #125, #58 ), #8, .F. ) ;
#37 = DIRECTION ( 'NONE',  ( -1.000000000000000000, 0.0000000000000000000, 4.336808689942017736E-15 ) ) ;
#38 = CARTESIAN_POINT ( 'NONE',  ( 1.312796983405018142E-13, 0.0000000000000000000, 37.60000000000000142 ) ) ;
#39 = CARTESIAN_POINT ( 'NONE',  ( 0.0000000000000000000, 0.0000000000000000000, 0.0000000000000000000 ) ) ;
#40 = DIRECTION ( 'NONE',  ( 3.491481338843133355E-15, -0.0000000000000000000, 1.000000000000000000 ) ) ;
#41 = DESIGN_CONTEXT ( 'detailed design', #170, 'design' ) ;
#42 = LOCAL_TIME ( 7, 59, 44.00000000000000000, #75 ) ;
#43 = DIRECTION ( 'NONE',  ( 3.491481338843133355E-15, -0.0000000000000000000, 1.000000000000000000 ) ) ;
#44 = VERTEX_POINT ( 'NONE', #124 ) ;
#45 = APPLICATION_PROTOCOL_DEFINITION ( 'international standard', 'config_control_design', 1994, #170 ) ;
#46 = PERSON_AND_ORGANIZATION ( #91, #17 ) ;
#47 = AXIS2_PLACEMENT_3D ( 'NONE', #69, #21, #182 ) ;
#48 = CALENDAR_DATE ( 2021, 9, 11 ) ;
#49 = DATE_AND_TIME ( #150, #95 ) ;
#50 = UNCERTAINTY_MEASURE_WITH_UNIT (LENGTH_MEASURE( 1.000000000000000082E-05 ), #64, 'distance_accuracy_value', 'NONE');
#51 = APPROVAL_DATE_TIME ( #10, #240 ) ;
#52 = DIRECTION ( 'NONE',  ( 0.0000000000000000000, 0.0000000000000000000, 1.000000000000000000 ) ) ;
#53 = LOCAL_TIME ( 7, 59, 44.00000000000000000, #204 ) ;
#54 = CARTESIAN_POINT ( 'NONE',  ( 2.000000000000131450, 0.0000000000000000000, 37.59999999999999432 ) ) ;
#55 = EDGE_LOOP ( 'NONE', ( #226 ) ) ;
#56 = ADVANCED_FACE ( 'NONE', ( #100, #213 ), #105, .T. ) ;
#57 = EDGE_LOOP ( 'NONE', ( #15 ) ) ;
#58 = FACE_OUTER_BOUND ( 'NONE', #209, .T. ) ;
#59 = EDGE_LOOP ( 'NONE', ( #168 ) ) ;
#60 = CARTESIAN_POINT ( 'NONE',  ( 1.326762908760390423E-13, 0.0000000000000000000, 38.00000000000000000 ) ) ;
#61 = SECURITY_CLASSIFICATION ( '', '', #109 ) ;
#62 = DIRECTION ( 'NONE',  ( 1.000000000000000000, 0.0000000000000000000, -3.652049423109069602E-15 ) ) ;
#63 = DIRECTION ( 'NONE',  ( -3.491481338843133355E-15, 0.0000000000000000000, -1.000000000000000000 ) ) ;
#64 =( LENGTH_UNIT ( ) NAMED_UNIT ( * ) SI_UNIT ( .MILLI., .METRE. ) );
#65 = COORDINATED_UNIVERSAL_TIME_OFFSET ( 1, 0, .AHEAD. ) ;
#66 = DIRECTION ( 'NONE',  ( 3.491481338843133355E-15, -0.0000000000000000000, 1.000000000000000000 ) ) ;
#67 = AXIS2_PLACEMENT_3D ( 'NONE', #38, #120, #198 ) ;
#68 = CARTESIAN_POINT ( 'NONE',  ( 0.9500000000000093925, 0.0000000000000000000, 2.849999999999996092 ) ) ;
#69 = CARTESIAN_POINT ( 'NONE',  ( 0.0000000000000000000, 0.0000000000000000000, 0.0000000000000000000 ) ) ;
#70 = ADVANCED_FACE ( 'NONE', ( #157, #232 ), #6, .T. ) ;
#71 = DIRECTION ( 'NONE',  ( 3.491481338843133355E-15, -0.0000000000000000000, 1.000000000000000000 ) ) ;
#72 = APPROVAL_DATE_TIME ( #92, #184 ) ;
#73 = AXIS2_PLACEMENT_3D ( 'NONE', #235, #71, #104 ) ;
#74 = CARTESIAN_POINT ( 'NONE',  ( 0.0000000000000000000, 0.0000000000000000000, 0.0000000000000000000 ) ) ;
#75 = COORDINATED_UNIVERSAL_TIME_OFFSET ( 1, 0, .AHEAD. ) ;
#76 = APPROVAL_PERSON_ORGANIZATION ( #197, #240, #181 ) ;
#77 = CC_DESIGN_SECURITY_CLASSIFICATION ( #61, ( #160 ) ) ;
#78 = ORIENTED_EDGE ( 'NONE', *, *, #82, .F. ) ;
#79 = EDGE_LOOP ( 'NONE', ( #16 ) ) ;
#80 = DIRECTION ( 'NONE',  ( 1.000000000000000000, 0.0000000000000000000, -4.336808689942017736E-15 ) ) ;
#81 = AXIS2_PLACEMENT_3D ( 'NONE', #176, #230, #210 ) ;
#82 = EDGE_CURVE ( 'NONE', #185, #185, #219, .T. ) ;
#83 = PRODUCT_DEFINITION ( 'UNKNOWN', '', #160, #41 ) ;
#84 = CARTESIAN_POINT ( 'NONE',  ( 1.326762908760390423E-13, 0.0000000000000000000, 38.00000000000000000 ) ) ;
#85 = DIRECTION ( 'NONE',  ( 1.000000000000000000, 0.0000000000000000000, -3.469446951953614189E-15 ) ) ;
#86 = CC_DESIGN_DATE_AND_TIME_ASSIGNMENT ( #236, #106, ( #61 ) ) ;
#87 = CARTESIAN_POINT ( 'NONE',  ( 1.326762908760390423E-13, 0.0000000000000000000, 38.00000000000000000 ) ) ;
#88 = CARTESIAN_POINT ( 'NONE',  ( 1.018148347421871547, 0.0000000000000000000, 3.367638090205025581 ) ) ;
#89 = PERSON_AND_ORGANIZATION_ROLE ( 'creator' ) ;
#90 = PRODUCT ( '334931', '334931', '', ( #93 ) ) ;
#91 = PERSON ( 'UNSPECIFIED', 'UNSPECIFIED', 'UNSPECIFIED', ('UNSPECIFIED'), ('UNSPECIFIED'), ('UNSPECIFIED') ) ;
#92 = DATE_AND_TIME ( #221, #53 ) ;
#93 = MECHANICAL_CONTEXT ( 'NONE', #175, 'mechanical' ) ;
#94 = LOCAL_TIME ( 7, 59, 44.00000000000000000, #65 ) ;
#95 = LOCAL_TIME ( 7, 59, 44.00000000000000000, #187 ) ;
#96 = CALENDAR_DATE ( 2021, 9, 11 ) ;
#97 = ORIENTED_EDGE ( 'NONE', *, *, #225, .F. ) ;
#98 = AXIS2_PLACEMENT_3D ( 'NONE', #87, #155, #37 ) ;
#99 = FACE_OUTER_BOUND ( 'NONE', #243, .T. ) ;
#100 = FACE_OUTER_BOUND ( 'NONE', #193, .T. ) ;
#101 = DIRECTION ( 'NONE',  ( 1.000000000000000000, 0.0000000000000000000, -3.652049423109069602E-15 ) ) ;
#102 = CARTESIAN_POINT ( 'NONE',  ( 9.950721815702931640E-15, 0.0000000000000000000, 2.850000000000000089 ) ) ;
#103 = DIRECTION ( 'NONE',  ( 3.491481338843133355E-15, -0.0000000000000000000, 1.000000000000000000 ) ) ;
#104 = DIRECTION ( 'NONE',  ( 1.000000000000000000, 0.0000000000000000000, -3.469446951953614189E-15 ) ) ;
#105 = CONICAL_SURFACE ( 'NONE', #98, 1.600000000000000089, 0.7853981633974512766 ) ;
#106 = DATE_TIME_ROLE ( 'classification_date' ) ;
#107 = ADVANCED_BREP_SHAPE_REPRESENTATION ( '334931', ( #123, #35, #22 ), #234 ) ;
#108 = CIRCLE ( 'NONE', #67, 2.000000000000000000 ) ;
#109 = SECURITY_CLASSIFICATION_LEVEL ( 'unclassified' ) ;
#110 = ORIENTED_EDGE ( 'NONE', *, *, #211, .F. ) ;
#111 = VERTEX_POINT ( 'NONE', #68 ) ;
#112 = ORIENTED_EDGE ( 'NONE', *, *, #127, .F. ) ;
#113 = CIRCLE ( 'NONE', #5, 1.600000000000000089 ) ;
#114 = CC_DESIGN_APPROVAL ( #169, ( #61 ) ) ;
#115 = ORIENTED_EDGE ( 'NONE', *, *, #207, .F. ) ;
#116 = AXIS2_PLACEMENT_3D ( 'NONE', #138, #214, #85 ) ;
#117 = DIRECTION ( 'NONE',  ( 1.000000000000000000, 0.0000000000000000000, -3.491481338843133355E-15 ) ) ;
#118 = DIRECTION ( 'NONE',  ( -3.491481338843133355E-15, 0.0000000000000000000, -1.000000000000000000 ) ) ;
#119 = EDGE_CURVE ( 'NONE', #161, #161, #113, .T. ) ;
#120 = DIRECTION ( 'NONE',  ( 3.491481338843133355E-15, -0.0000000000000000000, 1.000000000000000000 ) ) ;
#121 = LOCAL_TIME ( 7, 59, 44.00000000000000000, #205 ) ;
#122 = CARTESIAN_POINT ( 'NONE',  ( 1.175804554792818802E-14, 0.0000000000000000000, 3.367638090205028689 ) ) ;
#123 = MANIFOLD_SOLID_BREP ( 'Corps-Déplacer/Copier1[1]', #126 ) ;
#124 = CARTESIAN_POINT ( 'NONE',  ( 0.9499999999999998446, 0.0000000000000000000, -3.316907553494376269E-15 ) ) ;
#125 = FACE_OUTER_BOUND ( 'NONE', #208, .T. ) ;
#126 = CLOSED_SHELL ( 'NONE', ( #70, #56, #128, #36, #11, #3 ) ) ;
#127 = EDGE_CURVE ( 'NONE', #44, #44, #173, .T. ) ;
#128 = ADVANCED_FACE ( 'NONE', ( #142 ), #136, .T. ) ;
#129 = DATE_AND_TIME ( #48, #121 ) ;
#130 = CC_DESIGN_PERSON_AND_ORGANIZATION_ASSIGNMENT ( #149, #167, ( #61 ) ) ;
#131 = CIRCLE ( 'NONE', #12, 1.018148347421860000 ) ;
#132 = CC_DESIGN_APPROVAL ( #240, ( #83 ) ) ;
#133 = EDGE_LOOP ( 'NONE', ( #110 ) ) ;
#134 = CARTESIAN_POINT ( 'NONE',  ( 9.950721815702931640E-15, -6.179952383167373302E-16, 2.850000000000000089 ) ) ;
#135 = AXIS2_PLACEMENT_3D ( 'NONE', #217, #25, #62 ) ;
#136 = PLANE ( 'NONE',  #192 ) ;
#137 = FACE_OUTER_BOUND ( 'NONE', #57, .T. ) ;
#138 = CARTESIAN_POINT ( 'NONE',  ( 2.455195133053347890E-14, 0.0000000000000000000, 7.031958343122211019 ) ) ;
#139 = DIRECTION ( 'NONE',  ( 3.491481338843133355E-15, -0.0000000000000000000, 1.000000000000000000 ) ) ;
#140 = DIRECTION ( 'NONE',  ( 1.000000000000000000, 0.0000000000000000000, -3.491481338843133355E-15 ) ) ;
#141 = VERTEX_POINT ( 'NONE', #7 ) ;
#142 = FACE_OUTER_BOUND ( 'NONE', #2, .T. ) ;
#143 = PERSON_AND_ORGANIZATION ( #91, #17 ) ;
#144 = ADVANCED_FACE ( 'NONE', ( #199 ), #233, .T. ) ;
#145 = CIRCLE ( 'NONE', #135, 0.9499999999999995115 ) ;
#146 = PERSON_AND_ORGANIZATION ( #91, #17 ) ;
#147 = DATE_TIME_ROLE ( 'creation_date' ) ;
#148 =( NAMED_UNIT ( * ) SI_UNIT ( $, .STERADIAN. ) SOLID_ANGLE_UNIT ( ) );
#149 = PERSON_AND_ORGANIZATION ( #91, #17 ) ;
#150 = CALENDAR_DATE ( 2021, 9, 11 ) ;
#151 = EDGE_LOOP ( 'NONE', ( #78 ) ) ;
#152 = FACE_OUTER_BOUND ( 'NONE', #151, .T. ) ;
#153 = PRODUCT_RELATED_PRODUCT_CATEGORY ( 'detail', '', ( #90 ) ) ;
#154 = APPROVAL_STATUS ( 'not_yet_approved' ) ;
#155 = DIRECTION ( 'NONE',  ( -3.491481338843133355E-15, 0.0000000000000000000, -1.000000000000000000 ) ) ;
#156 = AXIS2_PLACEMENT_3D ( 'NONE', #231, #195, #117 ) ;
#157 = FACE_OUTER_BOUND ( 'NONE', #191, .T. ) ;
#158 = DIRECTION ( 'NONE',  ( 1.000000000000000000, 0.0000000000000000000, -3.491481338843133355E-15 ) ) ;
#159 = PERSON_AND_ORGANIZATION ( #91, #17 ) ;
#160 = PRODUCT_DEFINITION_FORMATION_WITH_SPECIFIED_SOURCE ( 'ANY', '', #90, .NOT_KNOWN. ) ;
#161 = VERTEX_POINT ( 'NONE', #26 ) ;
#162 = PERSON_AND_ORGANIZATION ( #91, #17 ) ;
#163 = ADVANCED_FACE ( 'NONE', ( #99 ), #20, .F. ) ;
#164 = APPROVAL_ROLE ( '' ) ;
#165 = APPROVAL_PERSON_ORGANIZATION ( #46, #184, #189 ) ;
#166 = PERSON_AND_ORGANIZATION ( #91, #17 ) ;
#167 = PERSON_AND_ORGANIZATION_ROLE ( 'classification_officer' ) ;
#168 = ORIENTED_EDGE ( 'NONE', *, *, #225, .T. ) ;
#169 = APPROVAL ( #241, 'UNSPECIFIED' ) ;
#170 = APPLICATION_CONTEXT ( 'configuration controlled 3d designs of mechanical parts and assemblies' ) ;
#171 = ORIENTED_EDGE ( 'NONE', *, *, #211, .T. ) ;
#172 = ORIENTED_EDGE ( 'NONE', *, *, #28, .F. ) ;
#173 = CIRCLE ( 'NONE', #156, 0.9499999999999998446 ) ;
#174 = CC_DESIGN_PERSON_AND_ORGANIZATION_ASSIGNMENT ( #166, #237, ( #160 ) ) ;
#175 = APPLICATION_CONTEXT ( 'configuration controlled 3d designs of mechanical parts and assemblies' ) ;
#176 = CARTESIAN_POINT ( 'NONE',  ( 9.950721815702931640E-15, -6.179952383167373302E-16, 2.850000000000000089 ) ) ;
#177 = FACE_BOUND ( 'NONE', #79, .T. ) ;
#178 = DIRECTION ( 'NONE',  ( -1.000000000000000000, 0.0000000000000000000, 3.491481338843133355E-15 ) ) ;
#179 = CIRCLE ( 'NONE', #73, 2.000000000000000000 ) ;
#180 = DIRECTION ( 'NONE',  ( 1.000000000000000000, 0.0000000000000000000, -3.491481338843133355E-15 ) ) ;
#181 = APPROVAL_ROLE ( '' ) ;
#182 = DIRECTION ( 'NONE',  ( 1.000000000000000000, 0.0000000000000000000, -3.491481338843133355E-15 ) ) ;
#183 = DIRECTION ( 'NONE',  ( 1.000000000000000000, 0.0000000000000000000, -3.407604560513107832E-15 ) ) ;
#184 = APPROVAL ( #30, 'UNSPECIFIED' ) ;
#185 = VERTEX_POINT ( 'NONE', #9 ) ;
#186 = APPROVAL_PERSON_ORGANIZATION ( #143, #169, #164 ) ;
#187 = COORDINATED_UNIVERSAL_TIME_OFFSET ( 1, 0, .AHEAD. ) ;
#188 = AXIS2_PLACEMENT_3D ( 'NONE', #102, #103, #158 ) ;
#189 = APPROVAL_ROLE ( '' ) ;
#190 = SHAPE_DEFINITION_REPRESENTATION ( #32, #107 ) ;
#191 = EDGE_LOOP ( 'NONE', ( #115 ) ) ;
#192 = AXIS2_PLACEMENT_3D ( 'NONE', #84, #40, #180 ) ;
#193 = EDGE_LOOP ( 'NONE', ( #13 ) ) ;
#194 = CARTESIAN_POINT ( 'NONE',  ( -4.915890506466203054E-37, 0.0000000000000000000, -1.407967000074253141E-22 ) ) ;
#195 = DIRECTION ( 'NONE',  ( 3.491481338843133355E-15, -0.0000000000000000000, 1.000000000000000000 ) ) ;
#196 = CARTESIAN_POINT ( 'NONE',  ( 9.950721815702930063E-15, 0.0000000000000000000, 2.849999999999999645 ) ) ;
#197 = PERSON_AND_ORGANIZATION ( #91, #17 ) ;
#198 = DIRECTION ( 'NONE',  ( 1.000000000000000000, 0.0000000000000000000, -3.469446951953614189E-15 ) ) ;
#199 = FACE_OUTER_BOUND ( 'NONE', #228, .T. ) ;
#200 = CC_DESIGN_PERSON_AND_ORGANIZATION_ASSIGNMENT ( #146, #220, ( #83 ) ) ;
#201 = VERTEX_POINT ( 'NONE', #54 ) ;
#202 = CLOSED_SHELL ( 'NONE', ( #144, #224, #163 ) ) ;
#203 = APPLICATION_PROTOCOL_DEFINITION ( 'international standard', 'config_control_design', 1994, #175 ) ;
#204 = COORDINATED_UNIVERSAL_TIME_OFFSET ( 1, 0, .AHEAD. ) ;
#205 = COORDINATED_UNIVERSAL_TIME_OFFSET ( 1, 0, .AHEAD. ) ;
#206 = CC_DESIGN_PERSON_AND_ORGANIZATION_ASSIGNMENT ( #162, #89, ( #160 ) ) ;
#207 = EDGE_CURVE ( 'NONE', #201, #201, #108, .T. ) ;
#208 = EDGE_LOOP ( 'NONE', ( #1 ) ) ;
#209 = EDGE_LOOP ( 'NONE', ( #172 ) ) ;
#210 = DIRECTION ( 'NONE',  ( -1.000000000000000000, 0.0000000000000000000, 3.491481338843133355E-15 ) ) ;
#211 = EDGE_CURVE ( 'NONE', #111, #111, #145, .T. ) ;
#212 = CYLINDRICAL_SURFACE ( 'NONE', #238, 0.9499999999999996225 ) ;
#213 = FACE_BOUND ( 'NONE', #55, .T. ) ;
#214 = DIRECTION ( 'NONE',  ( 3.491481338843133355E-15, -0.0000000000000000000, 1.000000000000000000 ) ) ;
#215 =( NAMED_UNIT ( * ) PLANE_ANGLE_UNIT ( ) SI_UNIT ( $, .RADIAN. ) );
#216 = AXIS2_PLACEMENT_3D ( 'NONE', #194, #63, #19 ) ;
#217 = CARTESIAN_POINT ( 'NONE',  ( 9.950721815702930063E-15, 0.0000000000000000000, 2.849999999999999645 ) ) ;
#218 = VERTEX_POINT ( 'NONE', #88 ) ;
#219 = CIRCLE ( 'NONE', #14, 0.9499999999999995115 ) ;
#220 = PERSON_AND_ORGANIZATION_ROLE ( 'creator' ) ;
#221 = CALENDAR_DATE ( 2021, 9, 11 ) ;
#222 = CALENDAR_DATE ( 2021, 9, 11 ) ;
#223 = DIRECTION ( 'NONE',  ( 1.000000000000000000, 0.0000000000000000000, 0.0000000000000000000 ) ) ;
#224 = ADVANCED_FACE ( 'NONE', ( #137, #23 ), #212, .T. ) ;
#225 = EDGE_CURVE ( 'NONE', #141, #141, #179, .T. ) ;
#226 = ORIENTED_EDGE ( 'NONE', *, *, #119, .F. ) ;
#227 = PLANE ( 'NONE',  #27 ) ;
#228 = EDGE_LOOP ( 'NONE', ( #112 ) ) ;
#229 = EDGE_LOOP ( 'NONE', ( #97 ) ) ;
#230 = DIRECTION ( 'NONE',  ( -3.491481338843133355E-15, 0.0000000000000000000, -1.000000000000000000 ) ) ;
#231 = CARTESIAN_POINT ( 'NONE',  ( -9.831781012932406109E-37, 0.0000000000000000000, -2.815934000148506281E-22 ) ) ;
#232 = FACE_OUTER_BOUND ( 'NONE', #59, .T. ) ;
#233 = PLANE ( 'NONE',  #216 ) ;
#234 =( GEOMETRIC_REPRESENTATION_CONTEXT ( 3 ) GLOBAL_UNCERTAINTY_ASSIGNED_CONTEXT ( ( #50 ) ) GLOBAL_UNIT_ASSIGNED_CONTEXT ( ( #64, #215, #148 ) ) REPRESENTATION_CONTEXT ( 'NONE', 'WORKASPACE' ) );
#235 = CARTESIAN_POINT ( 'NONE',  ( 2.455195133053347890E-14, 0.0000000000000000000, 7.031958343122211019 ) ) ;
#236 = DATE_AND_TIME ( #222, #42 ) ;
#237 = PERSON_AND_ORGANIZATION_ROLE ( 'design_supplier' ) ;
#238 = AXIS2_PLACEMENT_3D ( 'NONE', #39, #66, #140 ) ;
#239 = APPROVAL_DATE_TIME ( #49, #169 ) ;
#240 = APPROVAL ( #154, 'UNSPECIFIED' ) ;
#241 = APPROVAL_STATUS ( 'not_yet_approved' ) ;
#242 = CONICAL_SURFACE ( 'NONE', #116, 2.000000000000000000, 0.2617993877991428020 ) ;
#243 = EDGE_LOOP ( 'NONE', ( #171 ) ) ;
ENDSEC;
END-ISO-10303-21;
