ISO-10303-21;
HEADER;
FILE_DESCRIPTION (( 'STEP AP203' ),
    '1' );
FILE_NAME ('334930.step',
    '2021-11-09T06:59:43',
    ( '' ),
    ( '' ),
    'SwSTEP 2.0',
    'SolidWorks 2019',
    '' );
FILE_SCHEMA (( 'CONFIG_CONTROL_DESIGN' ));
ENDSEC;

DATA;
#1 = EDGE_LOOP ( 'NONE', ( #34 ) ) ;
#2 = CARTESIAN_POINT ( 'NONE',  ( 0.9000000000000002442, 0.0000000000000000000, -3.142333486552220785E-15 ) ) ;
#3 = PERSON_AND_ORGANIZATION ( #120, #201 ) ;
#4 = PERSON_AND_ORGANIZATION_ROLE ( 'design_supplier' ) ;
#5 = DIRECTION ( 'NONE',  ( 1.000000000000000000, 0.0000000000000000000, -3.373073425510458853E-15 ) ) ;
#6 = CC_DESIGN_PERSON_AND_ORGANIZATION_ASSIGNMENT ( #37, #20, ( #17 ) ) ;
#7 = CARTESIAN_POINT ( 'NONE',  ( -4.915890506466203054E-37, 0.0000000000000000000, -1.407967000074253141E-22 ) ) ;
#8 = LOCAL_TIME ( 7, 59, 43.00000000000000000, #107 ) ;
#9 = DIRECTION ( 'NONE',  ( 1.000000000000000000, 0.0000000000000000000, -3.491481338843133750E-15 ) ) ;
#10 = DIRECTION ( 'NONE',  ( 1.000000000000000000, 0.0000000000000000000, -3.491481338843133355E-15 ) ) ;
#11 = FACE_OUTER_BOUND ( 'NONE', #209, .T. ) ;
#12 = CC_DESIGN_APPROVAL ( #164, ( #17 ) ) ;
#13 = PLANE ( 'NONE',  #241 ) ;
#14 = CC_DESIGN_PERSON_AND_ORGANIZATION_ASSIGNMENT ( #3, #188, ( #71 ) ) ;
#15 = AXIS2_PLACEMENT_3D ( 'NONE', #28, #149, #64 ) ;
#16 = VERTEX_POINT ( 'NONE', #123 ) ;
#17 = PRODUCT_DEFINITION_FORMATION_WITH_SPECIFIED_SOURCE ( 'ANY', '', #71, .NOT_KNOWN. ) ;
#18 = MECHANICAL_CONTEXT ( 'NONE', #75, 'mechanical' ) ;
#19 = EDGE_LOOP ( 'NONE', ( #40 ) ) ;
#20 = PERSON_AND_ORGANIZATION_ROLE ( 'creator' ) ;
#21 = CALENDAR_DATE ( 2021, 9, 11 ) ;
#22 = LOCAL_TIME ( 7, 59, 43.00000000000000000, #224 ) ;
#23 =( NAMED_UNIT ( * ) SI_UNIT ( $, .STERADIAN. ) SOLID_ANGLE_UNIT ( ) );
#24 = FACE_OUTER_BOUND ( 'NONE', #122, .T. ) ;
#25 = UNCERTAINTY_MEASURE_WITH_UNIT (LENGTH_MEASURE( 1.000000000000000082E-05 ), #41, 'distance_accuracy_value', 'NONE');
#26 = APPROVAL_PERSON_ORGANIZATION ( #166, #233, #73 ) ;
#27 = PLANE ( 'NONE',  #205 ) ;
#28 = CARTESIAN_POINT ( 'NONE',  ( 2.467974841721909159E-14, 0.0000000000000000000, 7.068560883500662584 ) ) ;
#29 = VERTEX_POINT ( 'NONE', #98 ) ;
#30 = CLOSED_SHELL ( 'NONE', ( #50, #215, #130 ) ) ;
#31 = DESIGN_CONTEXT ( 'detailed design', #211, 'design' ) ;
#32 = CC_DESIGN_PERSON_AND_ORGANIZATION_ASSIGNMENT ( #89, #4, ( #17 ) ) ;
#33 = PERSON_AND_ORGANIZATION ( #120, #201 ) ;
#34 = ORIENTED_EDGE ( 'NONE', *, *, #111, .T. ) ;
#35 = LOCAL_TIME ( 7, 59, 43.00000000000000000, #190 ) ;
#36 = PRODUCT_DEFINITION ( 'UNKNOWN', '', #17, #31 ) ;
#37 = PERSON_AND_ORGANIZATION ( #120, #201 ) ;
#38 = EDGE_LOOP ( 'NONE', ( #145 ) ) ;
#39 = COORDINATED_UNIVERSAL_TIME_OFFSET ( 1, 0, .AHEAD. ) ;
#40 = ORIENTED_EDGE ( 'NONE', *, *, #56, .T. ) ;
#41 =( LENGTH_UNIT ( ) NAMED_UNIT ( * ) SI_UNIT ( .MILLI., .METRE. ) );
#42 = CIRCLE ( 'NONE', #99, 2.000000000000000000 ) ;
#43 = FACE_OUTER_BOUND ( 'NONE', #90, .T. ) ;
#44 = DIRECTION ( 'NONE',  ( 3.491481338843133355E-15, -0.0000000000000000000, 1.000000000000000000 ) ) ;
#45 = DIRECTION ( 'NONE',  ( 3.491481338843133355E-15, -0.0000000000000000000, 1.000000000000000000 ) ) ;
#46 = DIRECTION ( 'NONE',  ( -3.491481338843133355E-15, 0.0000000000000000000, -1.000000000000000000 ) ) ;
#47 = APPROVAL_DATE_TIME ( #174, #85 ) ;
#48 = DIRECTION ( 'NONE',  ( 1.000000000000000000, 0.0000000000000000000, -3.469446951953614189E-15 ) ) ;
#49 = VERTEX_POINT ( 'NONE', #220 ) ;
#50 = ADVANCED_FACE ( 'NONE', ( #207 ), #230, .T. ) ;
#51 = LOCAL_TIME ( 7, 59, 43.00000000000000000, #218 ) ;
#52 = AXIS2_PLACEMENT_3D ( 'NONE', #7, #97, #236 ) ;
#53 = ORIENTED_EDGE ( 'NONE', *, *, #223, .T. ) ;
#54 = PERSON_AND_ORGANIZATION ( #120, #201 ) ;
#55 = CC_DESIGN_PERSON_AND_ORGANIZATION_ASSIGNMENT ( #228, #59, ( #197 ) ) ;
#56 = EDGE_CURVE ( 'NONE', #49, #49, #169, .T. ) ;
#57 = APPROVAL_ROLE ( '' ) ;
#58 = AXIS2_PLACEMENT_3D ( 'NONE', #66, #113, #81 ) ;
#59 = PERSON_AND_ORGANIZATION_ROLE ( 'classification_officer' ) ;
#60 = DATE_AND_TIME ( #168, #242 ) ;
#61 = EDGE_LOOP ( 'NONE', ( #147 ) ) ;
#62 = DATE_TIME_ROLE ( 'creation_date' ) ;
#63 = APPROVAL_PERSON_ORGANIZATION ( #178, #85, #134 ) ;
#64 = DIRECTION ( 'NONE',  ( 1.000000000000000000, 0.0000000000000000000, -3.469446951953614189E-15 ) ) ;
#65 = PLANE ( 'NONE',  #202 ) ;
#66 = CARTESIAN_POINT ( 'NONE',  ( 0.0000000000000000000, 0.0000000000000000000, 0.0000000000000000000 ) ) ;
#67 = DIRECTION ( 'NONE',  ( 3.491481338843133355E-15, -0.0000000000000000000, 1.000000000000000000 ) ) ;
#68 = CIRCLE ( 'NONE', #221, 0.8999999999999998002 ) ;
#69 = CARTESIAN_POINT ( 'NONE',  ( 9.426999614876461637E-15, 0.0000000000000000000, 2.700000000000000178 ) ) ;
#70 = VERTEX_POINT ( 'NONE', #200 ) ;
#71 = PRODUCT ( '334930', '334930', '', ( #18 ) ) ;
#72 = CC_DESIGN_DATE_AND_TIME_ASSIGNMENT ( #60, #62, ( #36 ) ) ;
#73 = APPROVAL_ROLE ( '' ) ;
#74 = EDGE_LOOP ( 'NONE', ( #128 ) ) ;
#75 = APPLICATION_CONTEXT ( 'configuration controlled 3d designs of mechanical parts and assemblies' ) ;
#76 =( NAMED_UNIT ( * ) PLANE_ANGLE_UNIT ( ) SI_UNIT ( $, .RADIAN. ) );
#77 = DIRECTION ( 'NONE',  ( 3.491481338843133355E-15, -0.0000000000000000000, 1.000000000000000000 ) ) ;
#78 = AXIS2_PLACEMENT_3D ( 'NONE', #132, #67, #213 ) ;
#79 = CARTESIAN_POINT ( 'NONE',  ( 1.123432334710171644E-14, 0.0000000000000000000, 3.217638090205028778 ) ) ;
#80 = FACE_OUTER_BOUND ( 'NONE', #88, .T. ) ;
#81 = DIRECTION ( 'NONE',  ( 1.000000000000000000, 0.0000000000000000000, -3.491481338843133355E-15 ) ) ;
#82 = CARTESIAN_POINT ( 'NONE',  ( 1.326762908760390423E-13, 0.0000000000000000000, 38.00000000000000000 ) ) ;
#83 = AXIS2_PLACEMENT_3D ( 'NONE', #95, #152, #234 ) ;
#84 = DIRECTION ( 'NONE',  ( -3.491481338843133355E-15, 0.0000000000000000000, -1.000000000000000000 ) ) ;
#85 = APPROVAL ( #129, 'UNSPECIFIED' ) ;
#86 = AXIS2_PLACEMENT_3D ( 'NONE', #69, #156, #9 ) ;
#87 = VERTEX_POINT ( 'NONE', #2 ) ;
#88 = EDGE_LOOP ( 'NONE', ( #105 ) ) ;
#89 = PERSON_AND_ORGANIZATION ( #120, #201 ) ;
#90 = EDGE_LOOP ( 'NONE', ( #225 ) ) ;
#91 = AXIS2_PLACEMENT_3D ( 'NONE', #82, #235, #192 ) ;
#92 = DIRECTION ( 'NONE',  ( 1.000000000000000000, 0.0000000000000000000, -3.583590222709787972E-15 ) ) ;
#93 = FACE_BOUND ( 'NONE', #1, .T. ) ;
#94 = TOROIDAL_SURFACE ( 'NONE', #86, 2.899999999999999467, 2.000000000000000000 ) ;
#95 = CARTESIAN_POINT ( 'NONE',  ( 9.426999614876460059E-15, 0.0000000000000000000, 2.699999999999999734 ) ) ;
#96 = DIRECTION ( 'NONE',  ( 1.000000000000000000, 0.0000000000000000000, -3.469446951953614189E-15 ) ) ;
#97 = DIRECTION ( 'NONE',  ( -3.491481338843133355E-15, 0.0000000000000000000, -1.000000000000000000 ) ) ;
#98 = CARTESIAN_POINT ( 'NONE',  ( 1.600000000000132871, 0.0000000000000000000, 37.99999999999999289 ) ) ;
#99 = AXIS2_PLACEMENT_3D ( 'NONE', #108, #133, #96 ) ;
#100 = ADVANCED_FACE ( 'NONE', ( #173, #153 ), #116, .T. ) ;
#101 = PRODUCT_RELATED_PRODUCT_CATEGORY ( 'detail', '', ( #71 ) ) ;
#102 = EDGE_LOOP ( 'NONE', ( #227 ) ) ;
#103 = DIRECTION ( 'NONE',  ( 1.000000000000000000, 0.0000000000000000000, 0.0000000000000000000 ) ) ;
#104 = DIRECTION ( 'NONE',  ( 0.0000000000000000000, 0.0000000000000000000, 1.000000000000000000 ) ) ;
#105 = ORIENTED_EDGE ( 'NONE', *, *, #181, .F. ) ;
#106 = MANIFOLD_SOLID_BREP ( 'Corps-Déplacer/Copier1[2]', #30 ) ;
#107 = COORDINATED_UNIVERSAL_TIME_OFFSET ( 1, 0, .AHEAD. ) ;
#108 = CARTESIAN_POINT ( 'NONE',  ( 1.312796983405018142E-13, 0.0000000000000000000, 37.60000000000000142 ) ) ;
#109 = MANIFOLD_SOLID_BREP ( 'Corps-Déplacer/Copier1[1]', #159 ) ;
#110 = CALENDAR_DATE ( 2021, 9, 11 ) ;
#111 = EDGE_CURVE ( 'NONE', #182, #182, #184, .T. ) ;
#112 = CARTESIAN_POINT ( 'NONE',  ( 9.426999614876461637E-15, -5.854691731421721971E-16, 2.700000000000000178 ) ) ;
#113 = DIRECTION ( 'NONE',  ( 3.491481338843133355E-15, -0.0000000000000000000, 1.000000000000000000 ) ) ;
#114 = AXIS2_PLACEMENT_3D ( 'NONE', #199, #198, #136 ) ;
#115 = DIRECTION ( 'NONE',  ( -1.000000000000000000, 0.0000000000000000000, 3.491481338843133355E-15 ) ) ;
#116 = CYLINDRICAL_SURFACE ( 'NONE', #78, 2.000000000000000000 ) ;
#117 = CARTESIAN_POINT ( 'NONE',  ( 9.426999614876461637E-15, -5.854691731421721971E-16, 2.700000000000000178 ) ) ;
#118 = CONICAL_SURFACE ( 'NONE', #91, 1.600000000000000089, 0.7853981633974512766 ) ;
#119 = CC_DESIGN_DATE_AND_TIME_ASSIGNMENT ( #146, #127, ( #197 ) ) ;
#120 = PERSON ( 'UNSPECIFIED', 'UNSPECIFIED', 'UNSPECIFIED', ('UNSPECIFIED'), ('UNSPECIFIED'), ('UNSPECIFIED') ) ;
#121 = AXIS2_PLACEMENT_3D ( 'NONE', #170, #104, #103 ) ;
#122 = EDGE_LOOP ( 'NONE', ( #53 ) ) ;
#123 = CARTESIAN_POINT ( 'NONE',  ( 0.9000000000000092371, 0.0000000000000000000, 2.699999999999996625 ) ) ;
#124 = CALENDAR_DATE ( 2021, 9, 11 ) ;
#125 = ORIENTED_EDGE ( 'NONE', *, *, #131, .T. ) ;
#126 = CARTESIAN_POINT ( 'NONE',  ( 2.000000000000131450, 0.0000000000000000000, 37.59999999999999432 ) ) ;
#127 = DATE_TIME_ROLE ( 'classification_date' ) ;
#128 = ORIENTED_EDGE ( 'NONE', *, *, #158, .F. ) ;
#129 = APPROVAL_STATUS ( 'not_yet_approved' ) ;
#130 = ADVANCED_FACE ( 'NONE', ( #43 ), #27, .F. ) ;
#131 = EDGE_CURVE ( 'NONE', #70, #70, #212, .T. ) ;
#132 = CARTESIAN_POINT ( 'NONE',  ( 0.0000000000000000000, 0.0000000000000000000, 0.0000000000000000000 ) ) ;
#133 = DIRECTION ( 'NONE',  ( 3.491481338843133355E-15, -0.0000000000000000000, 1.000000000000000000 ) ) ;
#134 = APPROVAL_ROLE ( '' ) ;
#135 = DIRECTION ( 'NONE',  ( 3.491481338843133355E-15, -0.0000000000000000000, 1.000000000000000000 ) ) ;
#136 = DIRECTION ( 'NONE',  ( 1.000000000000000000, 0.0000000000000000000, -4.336808689942017736E-15 ) ) ;
#137 = CYLINDRICAL_SURFACE ( 'NONE', #58, 0.9000000000000000222 ) ;
#138 = CIRCLE ( 'NONE', #114, 1.600000000000000089 ) ;
#139 =( GEOMETRIC_REPRESENTATION_CONTEXT ( 3 ) GLOBAL_UNCERTAINTY_ASSIGNED_CONTEXT ( ( #25 ) ) GLOBAL_UNIT_ASSIGNED_CONTEXT ( ( #41, #76, #23 ) ) REPRESENTATION_CONTEXT ( 'NONE', 'WORKASPACE' ) );
#140 = APPLICATION_PROTOCOL_DEFINITION ( 'international standard', 'config_control_design', 1994, #211 ) ;
#141 = ORIENTED_EDGE ( 'NONE', *, *, #223, .F. ) ;
#142 = APPROVAL_DATE_TIME ( #231, #233 ) ;
#143 = ORIENTED_EDGE ( 'NONE', *, *, #148, .F. ) ;
#144 = SECURITY_CLASSIFICATION_LEVEL ( 'unclassified' ) ;
#145 = ORIENTED_EDGE ( 'NONE', *, *, #148, .T. ) ;
#146 = DATE_AND_TIME ( #21, #35 ) ;
#147 = ORIENTED_EDGE ( 'NONE', *, *, #158, .T. ) ;
#148 = EDGE_CURVE ( 'NONE', #29, #29, #138, .T. ) ;
#149 = DIRECTION ( 'NONE',  ( 3.491481338843133355E-15, -0.0000000000000000000, 1.000000000000000000 ) ) ;
#150 = CIRCLE ( 'NONE', #237, 0.9000000000000002442 ) ;
#151 = PRODUCT_DEFINITION_SHAPE ( 'NONE', 'NONE',  #36 ) ;
#152 = DIRECTION ( 'NONE',  ( 3.491481338843133355E-15, -0.0000000000000000000, 1.000000000000000000 ) ) ;
#153 = FACE_OUTER_BOUND ( 'NONE', #19, .T. ) ;
#154 = FACE_OUTER_BOUND ( 'NONE', #160, .T. ) ;
#155 = APPROVAL_PERSON_ORGANIZATION ( #33, #164, #57 ) ;
#156 = DIRECTION ( 'NONE',  ( 3.491481338843133355E-15, -0.0000000000000000000, 1.000000000000000000 ) ) ;
#157 = DIRECTION ( 'NONE',  ( -1.000000000000000000, 0.0000000000000000000, 3.491481338843133355E-15 ) ) ;
#158 = EDGE_CURVE ( 'NONE', #243, #243, #42, .T. ) ;
#159 = CLOSED_SHELL ( 'NONE', ( #100, #195, #204, #196, #183, #240 ) ) ;
#160 = EDGE_LOOP ( 'NONE', ( #167 ) ) ;
#161 = CC_DESIGN_APPROVAL ( #233, ( #36 ) ) ;
#162 = APPROVAL_STATUS ( 'not_yet_approved' ) ;
#163 = CALENDAR_DATE ( 2021, 9, 11 ) ;
#164 = APPROVAL ( #226, 'UNSPECIFIED' ) ;
#165 = EDGE_LOOP ( 'NONE', ( #210 ) ) ;
#166 = PERSON_AND_ORGANIZATION ( #120, #201 ) ;
#167 = ORIENTED_EDGE ( 'NONE', *, *, #131, .F. ) ;
#168 = CALENDAR_DATE ( 2021, 9, 11 ) ;
#169 = CIRCLE ( 'NONE', #191, 2.000000000000000000 ) ;
#170 = CARTESIAN_POINT ( 'NONE',  ( 0.0000000000000000000, 0.0000000000000000000, 0.0000000000000000000 ) ) ;
#171 = CARTESIAN_POINT ( 'NONE',  ( 2.467974841721909159E-14, 0.0000000000000000000, 7.068560883500662584 ) ) ;
#172 = SHAPE_DEFINITION_REPRESENTATION ( #151, #229 ) ;
#173 = FACE_OUTER_BOUND ( 'NONE', #74, .T. ) ;
#174 = DATE_AND_TIME ( #110, #51 ) ;
#175 = CC_DESIGN_SECURITY_CLASSIFICATION ( #197, ( #17 ) ) ;
#176 = DIRECTION ( 'NONE',  ( 3.491481338843133355E-15, -0.0000000000000000000, 1.000000000000000000 ) ) ;
#177 = FACE_OUTER_BOUND ( 'NONE', #165, .T. ) ;
#178 = PERSON_AND_ORGANIZATION ( #120, #201 ) ;
#179 = FACE_OUTER_BOUND ( 'NONE', #61, .T. ) ;
#180 = AXIS2_PLACEMENT_3D ( 'NONE', #79, #77, #92 ) ;
#181 = EDGE_CURVE ( 'NONE', #16, #16, #68, .T. ) ;
#182 = VERTEX_POINT ( 'NONE', #239 ) ;
#183 = ADVANCED_FACE ( 'NONE', ( #93, #177 ), #222, .T. ) ;
#184 = CIRCLE ( 'NONE', #180, 0.9681483474218594010 ) ;
#185 = PERSON_AND_ORGANIZATION_ROLE ( 'creator' ) ;
#186 = CC_DESIGN_APPROVAL ( #85, ( #197 ) ) ;
#187 = EDGE_LOOP ( 'NONE', ( #143 ) ) ;
#188 = PERSON_AND_ORGANIZATION_ROLE ( 'design_owner' ) ;
#189 = EDGE_LOOP ( 'NONE', ( #141 ) ) ;
#190 = COORDINATED_UNIVERSAL_TIME_OFFSET ( 1, 0, .AHEAD. ) ;
#191 = AXIS2_PLACEMENT_3D ( 'NONE', #171, #44, #48 ) ;
#192 = DIRECTION ( 'NONE',  ( -1.000000000000000000, 0.0000000000000000000, 4.336808689942017736E-15 ) ) ;
#193 = FACE_OUTER_BOUND ( 'NONE', #102, .T. ) ;
#194 = CARTESIAN_POINT ( 'NONE',  ( -9.831781012932406109E-37, 0.0000000000000000000, -2.815934000148506281E-22 ) ) ;
#195 = ADVANCED_FACE ( 'NONE', ( #179, #219 ), #118, .T. ) ;
#196 = ADVANCED_FACE ( 'NONE', ( #11, #193 ), #94, .F. ) ;
#197 = SECURITY_CLASSIFICATION ( '', '', #144 ) ;
#198 = DIRECTION ( 'NONE',  ( 3.491481338843133355E-15, -0.0000000000000000000, 1.000000000000000000 ) ) ;
#199 = CARTESIAN_POINT ( 'NONE',  ( 1.326762908760390423E-13, 0.0000000000000000000, 38.00000000000000000 ) ) ;
#200 = CARTESIAN_POINT ( 'NONE',  ( 0.9000000000000092371, 0.0000000000000000000, 2.699999999999996625 ) ) ;
#201 = ORGANIZATION ( 'UNSPECIFIED', 'UNSPECIFIED', '' ) ;
#202 = AXIS2_PLACEMENT_3D ( 'NONE', #216, #45, #10 ) ;
#203 = APPLICATION_PROTOCOL_DEFINITION ( 'international standard', 'config_control_design', 1994, #75 ) ;
#204 = ADVANCED_FACE ( 'NONE', ( #238 ), #65, .T. ) ;
#205 = AXIS2_PLACEMENT_3D ( 'NONE', #112, #46, #115 ) ;
#206 = APPROVAL_DATE_TIME ( #208, #164 ) ;
#207 = FACE_OUTER_BOUND ( 'NONE', #189, .T. ) ;
#208 = DATE_AND_TIME ( #124, #8 ) ;
#209 = EDGE_LOOP ( 'NONE', ( #125 ) ) ;
#210 = ORIENTED_EDGE ( 'NONE', *, *, #56, .F. ) ;
#211 = APPLICATION_CONTEXT ( 'configuration controlled 3d designs of mechanical parts and assemblies' ) ;
#212 = CIRCLE ( 'NONE', #83, 0.8999999999999998002 ) ;
#213 = DIRECTION ( 'NONE',  ( 1.000000000000000000, 0.0000000000000000000, -3.491481338843133355E-15 ) ) ;
#214 = CC_DESIGN_PERSON_AND_ORGANIZATION_ASSIGNMENT ( #54, #185, ( #36 ) ) ;
#215 = ADVANCED_FACE ( 'NONE', ( #24, #80 ), #137, .T. ) ;
#216 = CARTESIAN_POINT ( 'NONE',  ( 1.326762908760390423E-13, 0.0000000000000000000, 38.00000000000000000 ) ) ;
#217 = DIRECTION ( 'NONE',  ( 1.000000000000000000, 0.0000000000000000000, -3.491481338843133355E-15 ) ) ;
#218 = COORDINATED_UNIVERSAL_TIME_OFFSET ( 1, 0, .AHEAD. ) ;
#219 = FACE_BOUND ( 'NONE', #187, .T. ) ;
#220 = CARTESIAN_POINT ( 'NONE',  ( 2.000000000000024869, 0.0000000000000000000, 7.068560883500655478 ) ) ;
#221 = AXIS2_PLACEMENT_3D ( 'NONE', #232, #176, #5 ) ;
#222 = CONICAL_SURFACE ( 'NONE', #15, 2.000000000000000000, 0.2617993877991427465 ) ;
#223 = EDGE_CURVE ( 'NONE', #87, #87, #150, .T. ) ;
#224 = COORDINATED_UNIVERSAL_TIME_OFFSET ( 1, 0, .AHEAD. ) ;
#225 = ORIENTED_EDGE ( 'NONE', *, *, #181, .T. ) ;
#226 = APPROVAL_STATUS ( 'not_yet_approved' ) ;
#227 = ORIENTED_EDGE ( 'NONE', *, *, #111, .F. ) ;
#228 = PERSON_AND_ORGANIZATION ( #120, #201 ) ;
#229 = ADVANCED_BREP_SHAPE_REPRESENTATION ( '334930', ( #109, #106, #121 ), #139 ) ;
#230 = PLANE ( 'NONE',  #52 ) ;
#231 = DATE_AND_TIME ( #163, #22 ) ;
#232 = CARTESIAN_POINT ( 'NONE',  ( 9.426999614876460059E-15, 0.0000000000000000000, 2.699999999999999734 ) ) ;
#233 = APPROVAL ( #162, 'UNSPECIFIED' ) ;
#234 = DIRECTION ( 'NONE',  ( 1.000000000000000000, 0.0000000000000000000, -3.373073425510458853E-15 ) ) ;
#235 = DIRECTION ( 'NONE',  ( -3.491481338843133355E-15, 0.0000000000000000000, -1.000000000000000000 ) ) ;
#236 = DIRECTION ( 'NONE',  ( -1.000000000000000000, 0.0000000000000000000, 3.491481338843133355E-15 ) ) ;
#237 = AXIS2_PLACEMENT_3D ( 'NONE', #194, #135, #217 ) ;
#238 = FACE_OUTER_BOUND ( 'NONE', #38, .T. ) ;
#239 = CARTESIAN_POINT ( 'NONE',  ( 0.9681483474218706142, 0.0000000000000000000, 3.217638090205025225 ) ) ;
#240 = ADVANCED_FACE ( 'NONE', ( #154 ), #13, .T. ) ;
#241 = AXIS2_PLACEMENT_3D ( 'NONE', #117, #84, #157 ) ;
#242 = LOCAL_TIME ( 7, 59, 43.00000000000000000, #39 ) ;
#243 = VERTEX_POINT ( 'NONE', #126 ) ;
ENDSEC;
END-ISO-10303-21;
