ISO-10303-21;
HEADER;
FILE_DESCRIPTION (( 'STEP AP203' ),
    '1' );
FILE_NAME ('334929.step',
    '2021-11-09T06:59:43',
    ( '' ),
    ( '' ),
    'SwSTEP 2.0',
    'SolidWorks 2019',
    '' );
FILE_SCHEMA (( 'CONFIG_CONTROL_DESIGN' ));
ENDSEC;

DATA;
#1 = CC_DESIGN_PERSON_AND_ORGANIZATION_ASSIGNMENT ( #50, #238, ( #137 ) ) ;
#2 = FACE_OUTER_BOUND ( 'NONE', #63, .T. ) ;
#3 = CARTESIAN_POINT ( 'NONE',  ( 8.903277414049986901E-15, -5.529431079676070641E-16, 2.549999999999999378 ) ) ;
#4 = DIRECTION ( 'NONE',  ( 1.000000000000000000, 0.0000000000000000000, -3.491481338843132961E-15 ) ) ;
#5 = EDGE_CURVE ( 'NONE', #132, #132, #155, .T. ) ;
#6 = ORIENTED_EDGE ( 'NONE', *, *, #148, .F. ) ;
#7 = DIRECTION ( 'NONE',  ( 1.000000000000000000, 0.0000000000000000000, -3.469446951953614189E-15 ) ) ;
#8 = CC_DESIGN_PERSON_AND_ORGANIZATION_ASSIGNMENT ( #10, #101, ( #140 ) ) ;
#9 = CIRCLE ( 'NONE', #44, 1.600000000000000089 ) ;
#10 = PERSON_AND_ORGANIZATION ( #205, #159 ) ;
#11 = APPLICATION_PROTOCOL_DEFINITION ( 'international standard', 'config_control_design', 1994, #48 ) ;
#12 = SHAPE_DEFINITION_REPRESENTATION ( #77, #239 ) ;
#13 = APPROVAL_DATE_TIME ( #52, #165 ) ;
#14 = CLOSED_SHELL ( 'NONE', ( #192, #139, #64, #99, #158, #180 ) ) ;
#15 = CARTESIAN_POINT ( 'NONE',  ( 1.326762908760390423E-13, 0.0000000000000000000, 38.00000000000000000 ) ) ;
#16 = FACE_OUTER_BOUND ( 'NONE', #231, .T. ) ;
#17 = CARTESIAN_POINT ( 'NONE',  ( 2.480754550390469482E-14, 0.0000000000000000000, 7.105163423879108819 ) ) ;
#18 = ORIENTED_EDGE ( 'NONE', *, *, #230, .T. ) ;
#19 = FACE_OUTER_BOUND ( 'NONE', #41, .T. ) ;
#20 = CYLINDRICAL_SURFACE ( 'NONE', #39, 0.8499999999999998668 ) ;
#21 = ORIENTED_EDGE ( 'NONE', *, *, #196, .F. ) ;
#22 = CARTESIAN_POINT ( 'NONE',  ( 0.8500000000000000888, 0.0000000000000000000, -2.967759419610063328E-15 ) ) ;
#23 = VERTEX_POINT ( 'NONE', #147 ) ;
#24 = ADVANCED_FACE ( 'NONE', ( #207 ), #170, .F. ) ;
#25 = AXIS2_PLACEMENT_3D ( 'NONE', #242, #149, #40 ) ;
#26 =( GEOMETRIC_REPRESENTATION_CONTEXT ( 3 ) GLOBAL_UNCERTAINTY_ASSIGNED_CONTEXT ( ( #217 ) ) GLOBAL_UNIT_ASSIGNED_CONTEXT ( ( #143, #240, #146 ) ) REPRESENTATION_CONTEXT ( 'NONE', 'WORKASPACE' ) );
#27 = PERSON_AND_ORGANIZATION ( #205, #159 ) ;
#28 = PRODUCT_RELATED_PRODUCT_CATEGORY ( 'detail', '', ( #120 ) ) ;
#29 = PERSON_AND_ORGANIZATION ( #205, #159 ) ;
#30 = DIRECTION ( 'NONE',  ( 0.0000000000000000000, 0.0000000000000000000, 1.000000000000000000 ) ) ;
#31 = CONICAL_SURFACE ( 'NONE', #25, 1.600000000000000089, 0.7853981633974512766 ) ;
#32 = APPROVAL_ROLE ( '' ) ;
#33 = ADVANCED_FACE ( 'NONE', ( #93, #16 ), #20, .T. ) ;
#34 = COORDINATED_UNIVERSAL_TIME_OFFSET ( 1, 0, .AHEAD. ) ;
#35 = FACE_BOUND ( 'NONE', #36, .T. ) ;
#36 = EDGE_LOOP ( 'NONE', ( #136 ) ) ;
#37 = FACE_OUTER_BOUND ( 'NONE', #42, .T. ) ;
#38 = EDGE_LOOP ( 'NONE', ( #112 ) ) ;
#39 = AXIS2_PLACEMENT_3D ( 'NONE', #88, #213, #58 ) ;
#40 = DIRECTION ( 'NONE',  ( -1.000000000000000000, 0.0000000000000000000, 4.336808689942017736E-15 ) ) ;
#41 = EDGE_LOOP ( 'NONE', ( #171 ) ) ;
#42 = EDGE_LOOP ( 'NONE', ( #229 ) ) ;
#43 = FACE_OUTER_BOUND ( 'NONE', #79, .T. ) ;
#44 = AXIS2_PLACEMENT_3D ( 'NONE', #15, #127, #55 ) ;
#45 = CARTESIAN_POINT ( 'NONE',  ( 1.071060114627524328E-14, 0.0000000000000000000, 3.067638090205027979 ) ) ;
#46 = CC_DESIGN_DATE_AND_TIME_ASSIGNMENT ( #177, #163, ( #91 ) ) ;
#47 = APPROVAL_PERSON_ORGANIZATION ( #220, #224, #32 ) ;
#48 = APPLICATION_CONTEXT ( 'configuration controlled 3d designs of mechanical parts and assemblies' ) ;
#49 = AXIS2_PLACEMENT_3D ( 'NONE', #56, #172, #4 ) ;
#50 = PERSON_AND_ORGANIZATION ( #205, #159 ) ;
#51 = PERSON_AND_ORGANIZATION ( #205, #159 ) ;
#52 = DATE_AND_TIME ( #85, #194 ) ;
#53 = APPROVAL_STATUS ( 'not_yet_approved' ) ;
#54 = LOCAL_TIME ( 7, 59, 43.00000000000000000, #123 ) ;
#55 = DIRECTION ( 'NONE',  ( 1.000000000000000000, 0.0000000000000000000, -4.336808689942017736E-15 ) ) ;
#56 = CARTESIAN_POINT ( 'NONE',  ( -9.831781012932406109E-37, 0.0000000000000000000, -2.815934000148506281E-22 ) ) ;
#57 = DIRECTION ( 'NONE',  ( -3.491481338843133355E-15, 0.0000000000000000000, -1.000000000000000000 ) ) ;
#58 = DIRECTION ( 'NONE',  ( 1.000000000000000000, 0.0000000000000000000, -3.491481338843133355E-15 ) ) ;
#59 = CARTESIAN_POINT ( 'NONE',  ( 0.0000000000000000000, 0.0000000000000000000, 0.0000000000000000000 ) ) ;
#60 = FACE_OUTER_BOUND ( 'NONE', #38, .T. ) ;
#61 = LOCAL_TIME ( 7, 59, 43.00000000000000000, #34 ) ;
#62 = DIRECTION ( 'NONE',  ( 1.000000000000000000, 0.0000000000000000000, -3.491481338843133355E-15 ) ) ;
#63 = EDGE_LOOP ( 'NONE', ( #18 ) ) ;
#64 = ADVANCED_FACE ( 'NONE', ( #109 ), #128, .T. ) ;
#65 = CARTESIAN_POINT ( 'NONE',  ( 8.903277414049986901E-15, -5.529431079676070641E-16, 2.549999999999999378 ) ) ;
#66 = AXIS2_PLACEMENT_3D ( 'NONE', #133, #188, #62 ) ;
#67 = APPROVAL_STATUS ( 'not_yet_approved' ) ;
#68 = LOCAL_TIME ( 7, 59, 43.00000000000000000, #83 ) ;
#69 = MECHANICAL_CONTEXT ( 'NONE', #173, 'mechanical' ) ;
#70 = DIRECTION ( 'NONE',  ( 1.000000000000000000, 0.0000000000000000000, -3.571489509364016462E-15 ) ) ;
#71 = AXIS2_PLACEMENT_3D ( 'NONE', #74, #114, #151 ) ;
#72 = FACE_BOUND ( 'NONE', #90, .T. ) ;
#73 = ORIENTED_EDGE ( 'NONE', *, *, #5, .F. ) ;
#74 = CARTESIAN_POINT ( 'NONE',  ( 1.312796983405018142E-13, 0.0000000000000000000, 37.60000000000000142 ) ) ;
#75 = DIRECTION ( 'NONE',  ( 1.000000000000000000, 0.0000000000000000000, -3.491481338843133355E-15 ) ) ;
#76 = DIRECTION ( 'NONE',  ( 3.491481338843133355E-15, -0.0000000000000000000, 1.000000000000000000 ) ) ;
#77 = PRODUCT_DEFINITION_SHAPE ( 'NONE', 'NONE',  #91 ) ;
#78 = AXIS2_PLACEMENT_3D ( 'NONE', #225, #87, #108 ) ;
#79 = EDGE_LOOP ( 'NONE', ( #73 ) ) ;
#80 = DIRECTION ( 'NONE',  ( 1.000000000000000000, 0.0000000000000000000, -3.306400421548193336E-15 ) ) ;
#81 = APPROVAL_PERSON_ORGANIZATION ( #29, #165, #122 ) ;
#82 = PERSON_AND_ORGANIZATION_ROLE ( 'design_supplier' ) ;
#83 = COORDINATED_UNIVERSAL_TIME_OFFSET ( 1, 0, .AHEAD. ) ;
#84 = CC_DESIGN_SECURITY_CLASSIFICATION ( #137, ( #140 ) ) ;
#85 = CALENDAR_DATE ( 2021, 9, 11 ) ;
#86 = SECURITY_CLASSIFICATION_LEVEL ( 'unclassified' ) ;
#87 = DIRECTION ( 'NONE',  ( 3.491481338843133355E-15, -0.0000000000000000000, 1.000000000000000000 ) ) ;
#88 = CARTESIAN_POINT ( 'NONE',  ( 0.0000000000000000000, 0.0000000000000000000, 0.0000000000000000000 ) ) ;
#89 = DIRECTION ( 'NONE',  ( 3.491481338843133355E-15, -0.0000000000000000000, 1.000000000000000000 ) ) ;
#90 = EDGE_LOOP ( 'NONE', ( #210 ) ) ;
#91 = PRODUCT_DEFINITION ( 'UNKNOWN', '', #140, #102 ) ;
#92 = PLANE ( 'NONE',  #237 ) ;
#93 = FACE_OUTER_BOUND ( 'NONE', #157, .T. ) ;
#94 = AXIS2_PLACEMENT_3D ( 'NONE', #59, #130, #138 ) ;
#95 = ADVANCED_FACE ( 'NONE', ( #43 ), #92, .T. ) ;
#96 = VERTEX_POINT ( 'NONE', #174 ) ;
#97 = CIRCLE ( 'NONE', #113, 0.8499999999999996447 ) ;
#98 = APPROVAL ( #67, 'UNSPECIFIED' ) ;
#99 = ADVANCED_FACE ( 'NONE', ( #19, #150 ), #104, .F. ) ;
#100 = AXIS2_PLACEMENT_3D ( 'NONE', #202, #30, #106 ) ;
#101 = PERSON_AND_ORGANIZATION_ROLE ( 'creator' ) ;
#102 = DESIGN_CONTEXT ( 'detailed design', #48, 'design' ) ;
#103 = PERSON_AND_ORGANIZATION ( #205, #159 ) ;
#104 = TOROIDAL_SURFACE ( 'NONE', #66, 2.849999999999999645, 2.000000000000000444 ) ;
#105 = MANIFOLD_SOLID_BREP ( 'Corps-Déplacer/Copier1[1]', #14 ) ;
#106 = DIRECTION ( 'NONE',  ( 1.000000000000000000, 0.0000000000000000000, 0.0000000000000000000 ) ) ;
#107 = CALENDAR_DATE ( 2021, 9, 11 ) ;
#108 = DIRECTION ( 'NONE',  ( 1.000000000000000000, 0.0000000000000000000, -3.469446951953614189E-15 ) ) ;
#109 = FACE_OUTER_BOUND ( 'NONE', #154, .T. ) ;
#110 = CC_DESIGN_PERSON_AND_ORGANIZATION_ASSIGNMENT ( #103, #82, ( #140 ) ) ;
#111 = DIRECTION ( 'NONE',  ( 3.491481338843133355E-15, -0.0000000000000000000, 1.000000000000000000 ) ) ;
#112 = ORIENTED_EDGE ( 'NONE', *, *, #234, .T. ) ;
#113 = AXIS2_PLACEMENT_3D ( 'NONE', #209, #206, #70 ) ;
#114 = DIRECTION ( 'NONE',  ( 3.491481338843133355E-15, -0.0000000000000000000, 1.000000000000000000 ) ) ;
#115 = ORIENTED_EDGE ( 'NONE', *, *, #196, .T. ) ;
#116 = DIRECTION ( 'NONE',  ( -3.491481338843133355E-15, 0.0000000000000000000, -1.000000000000000000 ) ) ;
#117 = MANIFOLD_SOLID_BREP ( 'Corps-Déplacer/Copier1[2]', #212 ) ;
#118 = AXIS2_PLACEMENT_3D ( 'NONE', #203, #168, #191 ) ;
#119 = VERTEX_POINT ( 'NONE', #193 ) ;
#120 = PRODUCT ( '334929', '334929', '', ( #69 ) ) ;
#121 = CC_DESIGN_APPROVAL ( #98, ( #137 ) ) ;
#122 = APPROVAL_ROLE ( '' ) ;
#123 = COORDINATED_UNIVERSAL_TIME_OFFSET ( 1, 0, .AHEAD. ) ;
#124 = DATE_AND_TIME ( #161, #54 ) ;
#125 = DATE_AND_TIME ( #219, #68 ) ;
#126 = CARTESIAN_POINT ( 'NONE',  ( 2.000000000000131450, 0.0000000000000000000, 37.59999999999999432 ) ) ;
#127 = DIRECTION ( 'NONE',  ( 3.491481338843133355E-15, -0.0000000000000000000, 1.000000000000000000 ) ) ;
#128 = PLANE ( 'NONE',  #227 ) ;
#129 = CC_DESIGN_PERSON_AND_ORGANIZATION_ASSIGNMENT ( #51, #167, ( #120 ) ) ;
#130 = DIRECTION ( 'NONE',  ( 3.491481338843133355E-15, -0.0000000000000000000, 1.000000000000000000 ) ) ;
#131 = ORIENTED_EDGE ( 'NONE', *, *, #230, .F. ) ;
#132 = VERTEX_POINT ( 'NONE', #22 ) ;
#133 = CARTESIAN_POINT ( 'NONE',  ( 8.903277414049986901E-15, 0.0000000000000000000, 2.549999999999999378 ) ) ;
#134 = CIRCLE ( 'NONE', #118, 0.8499999999999996447 ) ;
#135 = EDGE_LOOP ( 'NONE', ( #211 ) ) ;
#136 = ORIENTED_EDGE ( 'NONE', *, *, #200, .T. ) ;
#137 = SECURITY_CLASSIFICATION ( '', '', #86 ) ;
#138 = DIRECTION ( 'NONE',  ( 1.000000000000000000, 0.0000000000000000000, -3.491481338843133355E-15 ) ) ;
#139 = ADVANCED_FACE ( 'NONE', ( #60, #72 ), #31, .T. ) ;
#140 = PRODUCT_DEFINITION_FORMATION_WITH_SPECIFIED_SOURCE ( 'ANY', '', #120, .NOT_KNOWN. ) ;
#141 = EDGE_CURVE ( 'NONE', #96, #96, #9, .T. ) ;
#142 = CALENDAR_DATE ( 2021, 9, 11 ) ;
#143 =( LENGTH_UNIT ( ) NAMED_UNIT ( * ) SI_UNIT ( .MILLI., .METRE. ) );
#144 = CONICAL_SURFACE ( 'NONE', #78, 2.000000000000000000, 0.2617993877991428575 ) ;
#145 = APPROVAL_ROLE ( '' ) ;
#146 =( NAMED_UNIT ( * ) SI_UNIT ( $, .STERADIAN. ) SOLID_ANGLE_UNIT ( ) );
#147 = CARTESIAN_POINT ( 'NONE',  ( 0.9181483474218699037, 0.0000000000000000000, 3.067638090205024870 ) ) ;
#148 = EDGE_CURVE ( 'NONE', #156, #156, #134, .T. ) ;
#149 = DIRECTION ( 'NONE',  ( -3.491481338843133355E-15, 0.0000000000000000000, -1.000000000000000000 ) ) ;
#150 = FACE_OUTER_BOUND ( 'NONE', #135, .T. ) ;
#151 = DIRECTION ( 'NONE',  ( 1.000000000000000000, 0.0000000000000000000, -3.469446951953614189E-15 ) ) ;
#152 = ORIENTED_EDGE ( 'NONE', *, *, #141, .T. ) ;
#153 = EDGE_LOOP ( 'NONE', ( #131 ) ) ;
#154 = EDGE_LOOP ( 'NONE', ( #152 ) ) ;
#155 = CIRCLE ( 'NONE', #49, 0.8500000000000000888 ) ;
#156 = VERTEX_POINT ( 'NONE', #232 ) ;
#157 = EDGE_LOOP ( 'NONE', ( #228 ) ) ;
#158 = ADVANCED_FACE ( 'NONE', ( #35, #215 ), #144, .T. ) ;
#159 = ORGANIZATION ( 'UNSPECIFIED', 'UNSPECIFIED', '' ) ;
#160 = APPLICATION_PROTOCOL_DEFINITION ( 'international standard', 'config_control_design', 1994, #173 ) ;
#161 = CALENDAR_DATE ( 2021, 9, 11 ) ;
#162 = AXIS2_PLACEMENT_3D ( 'NONE', #17, #89, #7 ) ;
#163 = DATE_TIME_ROLE ( 'creation_date' ) ;
#164 = COORDINATED_UNIVERSAL_TIME_OFFSET ( 1, 0, .AHEAD. ) ;
#165 = APPROVAL ( #53, 'UNSPECIFIED' ) ;
#166 = DATE_AND_TIME ( #107, #61 ) ;
#167 = PERSON_AND_ORGANIZATION_ROLE ( 'design_owner' ) ;
#168 = DIRECTION ( 'NONE',  ( 3.491481338843133355E-15, -0.0000000000000000000, 1.000000000000000000 ) ) ;
#169 = DIRECTION ( 'NONE',  ( -1.000000000000000000, 0.0000000000000000000, 3.491481338843133355E-15 ) ) ;
#170 = PLANE ( 'NONE',  #183 ) ;
#171 = ORIENTED_EDGE ( 'NONE', *, *, #148, .T. ) ;
#172 = DIRECTION ( 'NONE',  ( 3.491481338843133355E-15, -0.0000000000000000000, 1.000000000000000000 ) ) ;
#173 = APPLICATION_CONTEXT ( 'configuration controlled 3d designs of mechanical parts and assemblies' ) ;
#174 = CARTESIAN_POINT ( 'NONE',  ( 1.600000000000132871, 0.0000000000000000000, 37.99999999999999289 ) ) ;
#175 = CIRCLE ( 'NONE', #179, 0.9181483474218592455 ) ;
#176 = CIRCLE ( 'NONE', #71, 2.000000000000000000 ) ;
#177 = DATE_AND_TIME ( #142, #190 ) ;
#178 = CC_DESIGN_PERSON_AND_ORGANIZATION_ASSIGNMENT ( #27, #198, ( #91 ) ) ;
#179 = AXIS2_PLACEMENT_3D ( 'NONE', #45, #111, #80 ) ;
#180 = ADVANCED_FACE ( 'NONE', ( #223 ), #184, .T. ) ;
#181 = APPROVAL_DATE_TIME ( #166, #98 ) ;
#182 = COORDINATED_UNIVERSAL_TIME_OFFSET ( 1, 0, .AHEAD. ) ;
#183 = AXIS2_PLACEMENT_3D ( 'NONE', #3, #116, #189 ) ;
#184 = PLANE ( 'NONE',  #216 ) ;
#185 = CARTESIAN_POINT ( 'NONE',  ( 1.326762908760390423E-13, 0.0000000000000000000, 38.00000000000000000 ) ) ;
#186 = CYLINDRICAL_SURFACE ( 'NONE', #94, 2.000000000000000000 ) ;
#187 = EDGE_LOOP ( 'NONE', ( #115 ) ) ;
#188 = DIRECTION ( 'NONE',  ( 3.491481338843133355E-15, -0.0000000000000000000, 1.000000000000000000 ) ) ;
#189 = DIRECTION ( 'NONE',  ( -1.000000000000000000, 0.0000000000000000000, 3.491481338843133355E-15 ) ) ;
#190 = LOCAL_TIME ( 7, 59, 43.00000000000000000, #164 ) ;
#191 = DIRECTION ( 'NONE',  ( 1.000000000000000000, 0.0000000000000000000, -3.571489509364016462E-15 ) ) ;
#192 = ADVANCED_FACE ( 'NONE', ( #37, #2 ), #186, .T. ) ;
#193 = CARTESIAN_POINT ( 'NONE',  ( 0.8500000000000085265, 0.0000000000000000000, 2.549999999999995826 ) ) ;
#194 = LOCAL_TIME ( 7, 59, 43.00000000000000000, #182 ) ;
#195 = DATE_TIME_ROLE ( 'classification_date' ) ;
#196 = EDGE_CURVE ( 'NONE', #119, #119, #97, .T. ) ;
#197 = APPROVAL_DATE_TIME ( #124, #224 ) ;
#198 = PERSON_AND_ORGANIZATION_ROLE ( 'creator' ) ;
#199 = APPROVAL_STATUS ( 'not_yet_approved' ) ;
#200 = EDGE_CURVE ( 'NONE', #23, #23, #175, .T. ) ;
#201 = CIRCLE ( 'NONE', #162, 2.000000000000000000 ) ;
#202 = CARTESIAN_POINT ( 'NONE',  ( 0.0000000000000000000, 0.0000000000000000000, 0.0000000000000000000 ) ) ;
#203 = CARTESIAN_POINT ( 'NONE',  ( 8.903277414049985323E-15, 0.0000000000000000000, 2.549999999999998934 ) ) ;
#204 = DIRECTION ( 'NONE',  ( -3.491481338843133355E-15, 0.0000000000000000000, -1.000000000000000000 ) ) ;
#205 = PERSON ( 'UNSPECIFIED', 'UNSPECIFIED', 'UNSPECIFIED', ('UNSPECIFIED'), ('UNSPECIFIED'), ('UNSPECIFIED') ) ;
#206 = DIRECTION ( 'NONE',  ( 3.491481338843133355E-15, -0.0000000000000000000, 1.000000000000000000 ) ) ;
#207 = FACE_OUTER_BOUND ( 'NONE', #187, .T. ) ;
#208 = APPROVAL_PERSON_ORGANIZATION ( #235, #98, #145 ) ;
#209 = CARTESIAN_POINT ( 'NONE',  ( 8.903277414049985323E-15, 0.0000000000000000000, 2.549999999999998934 ) ) ;
#210 = ORIENTED_EDGE ( 'NONE', *, *, #141, .F. ) ;
#211 = ORIENTED_EDGE ( 'NONE', *, *, #200, .F. ) ;
#212 = CLOSED_SHELL ( 'NONE', ( #95, #33, #24 ) ) ;
#213 = DIRECTION ( 'NONE',  ( 3.491481338843133355E-15, -0.0000000000000000000, 1.000000000000000000 ) ) ;
#214 = CC_DESIGN_DATE_AND_TIME_ASSIGNMENT ( #125, #195, ( #137 ) ) ;
#215 = FACE_OUTER_BOUND ( 'NONE', #153, .T. ) ;
#216 = AXIS2_PLACEMENT_3D ( 'NONE', #65, #57, #169 ) ;
#217 = UNCERTAINTY_MEASURE_WITH_UNIT (LENGTH_MEASURE( 1.000000000000000082E-05 ), #143, 'distance_accuracy_value', 'NONE');
#218 = VERTEX_POINT ( 'NONE', #126 ) ;
#219 = CALENDAR_DATE ( 2021, 9, 11 ) ;
#220 = PERSON_AND_ORGANIZATION ( #205, #159 ) ;
#221 = CC_DESIGN_APPROVAL ( #165, ( #140 ) ) ;
#222 = VERTEX_POINT ( 'NONE', #236 ) ;
#223 = FACE_OUTER_BOUND ( 'NONE', #233, .T. ) ;
#224 = APPROVAL ( #199, 'UNSPECIFIED' ) ;
#225 = CARTESIAN_POINT ( 'NONE',  ( 2.480754550390469482E-14, 0.0000000000000000000, 7.105163423879108819 ) ) ;
#226 = CARTESIAN_POINT ( 'NONE',  ( -4.915890506466203054E-37, 0.0000000000000000000, -1.407967000074253141E-22 ) ) ;
#227 = AXIS2_PLACEMENT_3D ( 'NONE', #185, #76, #75 ) ;
#228 = ORIENTED_EDGE ( 'NONE', *, *, #5, .T. ) ;
#229 = ORIENTED_EDGE ( 'NONE', *, *, #234, .F. ) ;
#230 = EDGE_CURVE ( 'NONE', #222, #222, #201, .T. ) ;
#231 = EDGE_LOOP ( 'NONE', ( #21 ) ) ;
#232 = CARTESIAN_POINT ( 'NONE',  ( 0.8500000000000085265, 0.0000000000000000000, 2.549999999999995826 ) ) ;
#233 = EDGE_LOOP ( 'NONE', ( #6 ) ) ;
#234 = EDGE_CURVE ( 'NONE', #218, #218, #176, .T. ) ;
#235 = PERSON_AND_ORGANIZATION ( #205, #159 ) ;
#236 = CARTESIAN_POINT ( 'NONE',  ( 2.000000000000024869, 0.0000000000000000000, 7.105163423879102602 ) ) ;
#237 = AXIS2_PLACEMENT_3D ( 'NONE', #226, #204, #243 ) ;
#238 = PERSON_AND_ORGANIZATION_ROLE ( 'classification_officer' ) ;
#239 = ADVANCED_BREP_SHAPE_REPRESENTATION ( '334929', ( #105, #117, #100 ), #26 ) ;
#240 =( NAMED_UNIT ( * ) PLANE_ANGLE_UNIT ( ) SI_UNIT ( $, .RADIAN. ) );
#241 = CC_DESIGN_APPROVAL ( #224, ( #91 ) ) ;
#242 = CARTESIAN_POINT ( 'NONE',  ( 1.326762908760390423E-13, 0.0000000000000000000, 38.00000000000000000 ) ) ;
#243 = DIRECTION ( 'NONE',  ( -1.000000000000000000, 0.0000000000000000000, 3.491481338843133355E-15 ) ) ;
ENDSEC;
END-ISO-10303-21;
