ISO-10303-21;
HEADER;
FILE_DESCRIPTION (( 'STEP AP203' ),
    '1' );
FILE_NAME ('334928.step',
    '2021-11-09T06:59:42',
    ( '' ),
    ( '' ),
    'SwSTEP 2.0',
    'SolidWorks 2019',
    '' );
FILE_SCHEMA (( 'CONFIG_CONTROL_DESIGN' ));
ENDSEC;

DATA;
#1 = FACE_BOUND ( 'NONE', #137, .T. ) ;
#2 = PLANE ( 'NONE',  #240 ) ;
#3 = COORDINATED_UNIVERSAL_TIME_OFFSET ( 1, 0, .AHEAD. ) ;
#4 = DIRECTION ( 'NONE',  ( 1.000000000000000000, 0.0000000000000000000, -4.336808689942017736E-15 ) ) ;
#5 = CARTESIAN_POINT ( 'NONE',  ( 0.7999999999999999334, 0.0000000000000000000, -2.793185352667906660E-15 ) ) ;
#6 = APPROVAL_ROLE ( '' ) ;
#7 = AXIS2_PLACEMENT_3D ( 'NONE', #130, #223, #111 ) ;
#8 = APPROVAL_STATUS ( 'not_yet_approved' ) ;
#9 = CARTESIAN_POINT ( 'NONE',  ( 1.600000000000132871, 0.0000000000000000000, 37.99999999999999289 ) ) ;
#10 = CALENDAR_DATE ( 2021, 9, 11 ) ;
#11 = LOCAL_TIME ( 7, 59, 42.00000000000000000, #32 ) ;
#12 = PERSON_AND_ORGANIZATION_ROLE ( 'design_supplier' ) ;
#13 = EDGE_LOOP ( 'NONE', ( #216 ) ) ;
#14 = CC_DESIGN_DATE_AND_TIME_ASSIGNMENT ( #106, #178, ( #191 ) ) ;
#15 = UNCERTAINTY_MEASURE_WITH_UNIT (LENGTH_MEASURE( 1.000000000000000082E-05 ), #31, 'distance_accuracy_value', 'NONE');
#16 = AXIS2_PLACEMENT_3D ( 'NONE', #166, #83, #242 ) ;
#17 = DIRECTION ( 'NONE',  ( -1.000000000000000000, 0.0000000000000000000, 3.491481338843133355E-15 ) ) ;
#18 = APPLICATION_CONTEXT ( 'configuration controlled 3d designs of mechanical parts and assemblies' ) ;
#19 = AXIS2_PLACEMENT_3D ( 'NONE', #20, #115, #92 ) ;
#20 = CARTESIAN_POINT ( 'NONE',  ( 1.018687894544877486E-14, 0.0000000000000000000, 2.917638090205028067 ) ) ;
#21 = DIRECTION ( 'NONE',  ( 3.491481338843133355E-15, -0.0000000000000000000, 1.000000000000000000 ) ) ;
#22 = DIRECTION ( 'NONE',  ( 1.000000000000000000, 0.0000000000000000000, -3.491481338843133750E-15 ) ) ;
#23 = CLOSED_SHELL ( 'NONE', ( #222, #27, #37, #239, #177, #171 ) ) ;
#24 = AXIS2_PLACEMENT_3D ( 'NONE', #128, #206, #189 ) ;
#25 = CARTESIAN_POINT ( 'NONE',  ( 1.326762908760390423E-13, 0.0000000000000000000, 38.00000000000000000 ) ) ;
#26 = EDGE_CURVE ( 'NONE', #148, #148, #35, .T. ) ;
#27 = ADVANCED_FACE ( 'NONE', ( #144, #1 ), #190, .T. ) ;
#28 = VERTEX_POINT ( 'NONE', #86 ) ;
#29 = MANIFOLD_SOLID_BREP ( 'Corps-Déplacer/Copier1[2]', #219 ) ;
#30 = COORDINATED_UNIVERSAL_TIME_OFFSET ( 1, 0, .AHEAD. ) ;
#31 =( LENGTH_UNIT ( ) NAMED_UNIT ( * ) SI_UNIT ( .MILLI., .METRE. ) );
#32 = COORDINATED_UNIVERSAL_TIME_OFFSET ( 1, 0, .AHEAD. ) ;
#33 = DESIGN_CONTEXT ( 'detailed design', #18, 'design' ) ;
#34 = COORDINATED_UNIVERSAL_TIME_OFFSET ( 1, 0, .AHEAD. ) ;
#35 = CIRCLE ( 'NONE', #100, 0.7999999999999994893 ) ;
#36 = AXIS2_PLACEMENT_3D ( 'NONE', #94, #207, #58 ) ;
#37 = ADVANCED_FACE ( 'NONE', ( #224 ), #183, .T. ) ;
#38 = EDGE_LOOP ( 'NONE', ( #218 ) ) ;
#39 = DIRECTION ( 'NONE',  ( -3.491481338843133355E-15, 0.0000000000000000000, -1.000000000000000000 ) ) ;
#40 = CIRCLE ( 'NONE', #36, 0.7999999999999994893 ) ;
#41 = CONICAL_SURFACE ( 'NONE', #16, 2.000000000000000000, 0.2617993877991429130 ) ;
#42 = FACE_OUTER_BOUND ( 'NONE', #38, .T. ) ;
#43 = APPROVAL_DATE_TIME ( #169, #124 ) ;
#44 = DIRECTION ( 'NONE',  ( 3.491481338843133355E-15, -0.0000000000000000000, 1.000000000000000000 ) ) ;
#45 = DIRECTION ( 'NONE',  ( 1.000000000000000000, 0.0000000000000000000, -3.491481338843133355E-15 ) ) ;
#46 = AXIS2_PLACEMENT_3D ( 'NONE', #25, #172, #4 ) ;
#47 = DIRECTION ( 'NONE',  ( 1.000000000000000000, 0.0000000000000000000, -3.491481338843133355E-15 ) ) ;
#48 = DATE_AND_TIME ( #194, #11 ) ;
#49 = VERTEX_POINT ( 'NONE', #9 ) ;
#50 = CIRCLE ( 'NONE', #46, 1.600000000000000089 ) ;
#51 = APPROVAL_DATE_TIME ( #175, #59 ) ;
#52 = AXIS2_PLACEMENT_3D ( 'NONE', #188, #44, #145 ) ;
#53 = APPROVAL_PERSON_ORGANIZATION ( #193, #195, #118 ) ;
#54 = EDGE_LOOP ( 'NONE', ( #181 ) ) ;
#55 = EDGE_LOOP ( 'NONE', ( #75 ) ) ;
#56 = LOCAL_TIME ( 7, 59, 42.00000000000000000, #67 ) ;
#57 = EDGE_LOOP ( 'NONE', ( #160 ) ) ;
#58 = DIRECTION ( 'NONE',  ( 1.000000000000000000, 0.0000000000000000000, -3.252606517456515274E-15 ) ) ;
#59 = APPROVAL ( #8, 'UNSPECIFIED' ) ;
#60 = DIRECTION ( 'NONE',  ( -3.491481338843133355E-15, 0.0000000000000000000, -1.000000000000000000 ) ) ;
#61 = CC_DESIGN_SECURITY_CLASSIFICATION ( #191, ( #101 ) ) ;
#62 = DIRECTION ( 'NONE',  ( 3.491481338843133355E-15, -0.0000000000000000000, 1.000000000000000000 ) ) ;
#63 = DIRECTION ( 'NONE',  ( 3.491481338843133355E-15, -0.0000000000000000000, 1.000000000000000000 ) ) ;
#64 = FACE_OUTER_BOUND ( 'NONE', #13, .T. ) ;
#65 = PERSON_AND_ORGANIZATION ( #107, #91 ) ;
#66 = APPLICATION_PROTOCOL_DEFINITION ( 'international standard', 'config_control_design', 1994, #243 ) ;
#67 = COORDINATED_UNIVERSAL_TIME_OFFSET ( 1, 0, .AHEAD. ) ;
#68 =( NAMED_UNIT ( * ) PLANE_ANGLE_UNIT ( ) SI_UNIT ( $, .RADIAN. ) );
#69 = VERTEX_POINT ( 'NONE', #5 ) ;
#70 = PRODUCT ( '334928', '334928', '', ( #133 ) ) ;
#71 = ADVANCED_FACE ( 'NONE', ( #208 ), #93, .T. ) ;
#72 = PERSON_AND_ORGANIZATION_ROLE ( 'creator' ) ;
#73 = EDGE_LOOP ( 'NONE', ( #200 ) ) ;
#74 = PRODUCT_DEFINITION_SHAPE ( 'NONE', 'NONE',  #136 ) ;
#75 = ORIENTED_EDGE ( 'NONE', *, *, #26, .F. ) ;
#76 = AXIS2_PLACEMENT_3D ( 'NONE', #164, #60, #170 ) ;
#77 = EDGE_LOOP ( 'NONE', ( #109 ) ) ;
#78 = DIRECTION ( 'NONE',  ( -1.000000000000000000, 0.0000000000000000000, 3.491481338843133355E-15 ) ) ;
#79 = DIRECTION ( 'NONE',  ( 3.491481338843133355E-15, -0.0000000000000000000, 1.000000000000000000 ) ) ;
#80 = SHAPE_DEFINITION_REPRESENTATION ( #74, #156 ) ;
#81 = CARTESIAN_POINT ( 'NONE',  ( 1.312796983405018142E-13, 0.0000000000000000000, 37.60000000000000142 ) ) ;
#82 = DIRECTION ( 'NONE',  ( 1.000000000000000000, 0.0000000000000000000, -3.491481338843133355E-15 ) ) ;
#83 = DIRECTION ( 'NONE',  ( 3.491481338843133355E-15, -0.0000000000000000000, 1.000000000000000000 ) ) ;
#84 = CIRCLE ( 'NONE', #7, 0.7999999999999999334 ) ;
#85 = PERSON_AND_ORGANIZATION ( #107, #91 ) ;
#86 = CARTESIAN_POINT ( 'NONE',  ( 0.8000000000000078160, 0.0000000000000000000, 2.399999999999996358 ) ) ;
#87 = DATE_AND_TIME ( #10, #122 ) ;
#88 = PERSON_AND_ORGANIZATION ( #107, #91 ) ;
#89 = FACE_OUTER_BOUND ( 'NONE', #57, .T. ) ;
#90 = CIRCLE ( 'NONE', #19, 0.8681483474218599783 ) ;
#91 = ORGANIZATION ( 'UNSPECIFIED', 'UNSPECIFIED', '' ) ;
#92 = DIRECTION ( 'NONE',  ( 1.000000000000000000, 0.0000000000000000000, -3.496828729761136367E-15 ) ) ;
#93 = PLANE ( 'NONE',  #163 ) ;
#94 = CARTESIAN_POINT ( 'NONE',  ( 8.379555213223515320E-15, 0.0000000000000000000, 2.399999999999999023 ) ) ;
#95 = TOROIDAL_SURFACE ( 'NONE', #161, 2.799999999999999822, 2.000000000000000000 ) ;
#96 = PLANE ( 'NONE',  #24 ) ;
#97 = CARTESIAN_POINT ( 'NONE',  ( 2.000000000000131450, 0.0000000000000000000, 37.59999999999999432 ) ) ;
#98 = DATE_TIME_ROLE ( 'creation_date' ) ;
#99 = EDGE_CURVE ( 'NONE', #233, #233, #90, .T. ) ;
#100 = AXIS2_PLACEMENT_3D ( 'NONE', #138, #21, #203 ) ;
#101 = PRODUCT_DEFINITION_FORMATION_WITH_SPECIFIED_SOURCE ( 'ANY', '', #70, .NOT_KNOWN. ) ;
#102 = APPROVAL_DATE_TIME ( #48, #195 ) ;
#103 = CALENDAR_DATE ( 2021, 9, 11 ) ;
#104 = PERSON_AND_ORGANIZATION ( #107, #91 ) ;
#105 = MANIFOLD_SOLID_BREP ( 'Corps-Déplacer/Copier1[1]', #23 ) ;
#106 = DATE_AND_TIME ( #234, #230 ) ;
#107 = PERSON ( 'UNSPECIFIED', 'UNSPECIFIED', 'UNSPECIFIED', ('UNSPECIFIED'), ('UNSPECIFIED'), ('UNSPECIFIED') ) ;
#108 = EDGE_LOOP ( 'NONE', ( #162 ) ) ;
#109 = ORIENTED_EDGE ( 'NONE', *, *, #131, .T. ) ;
#110 = FACE_OUTER_BOUND ( 'NONE', #73, .T. ) ;
#111 = DIRECTION ( 'NONE',  ( 1.000000000000000000, 0.0000000000000000000, -3.491481338843133750E-15 ) ) ;
#112 = LOCAL_TIME ( 7, 59, 42.00000000000000000, #3 ) ;
#113 = CYLINDRICAL_SURFACE ( 'NONE', #198, 2.000000000000000000 ) ;
#114 = CARTESIAN_POINT ( 'NONE',  ( 0.0000000000000000000, 0.0000000000000000000, 0.0000000000000000000 ) ) ;
#115 = DIRECTION ( 'NONE',  ( 3.491481338843133355E-15, -0.0000000000000000000, 1.000000000000000000 ) ) ;
#116 = VERTEX_POINT ( 'NONE', #132 ) ;
#117 = CC_DESIGN_PERSON_AND_ORGANIZATION_ASSIGNMENT ( #214, #72, ( #101 ) ) ;
#118 = APPROVAL_ROLE ( '' ) ;
#119 = CARTESIAN_POINT ( 'NONE',  ( 0.8681483474218701923, 0.0000000000000000000, 2.917638090205024959 ) ) ;
#120 = PERSON_AND_ORGANIZATION_ROLE ( 'classification_officer' ) ;
#121 = AXIS2_PLACEMENT_3D ( 'NONE', #241, #62, #82 ) ;
#122 = LOCAL_TIME ( 7, 59, 42.00000000000000000, #30 ) ;
#123 = ORIENTED_EDGE ( 'NONE', *, *, #238, .F. ) ;
#124 = APPROVAL ( #228, 'UNSPECIFIED' ) ;
#125 = EDGE_LOOP ( 'NONE', ( #135 ) ) ;
#126 = DIRECTION ( 'NONE',  ( -3.491481338843133355E-15, 0.0000000000000000000, -1.000000000000000000 ) ) ;
#127 = FACE_OUTER_BOUND ( 'NONE', #55, .T. ) ;
#128 = CARTESIAN_POINT ( 'NONE',  ( 8.379555213223516897E-15, -5.204170427930419311E-16, 2.399999999999999467 ) ) ;
#129 = DIRECTION ( 'NONE',  ( 3.491481338843133355E-15, -0.0000000000000000000, 1.000000000000000000 ) ) ;
#130 = CARTESIAN_POINT ( 'NONE',  ( -9.831781012932406109E-37, 0.0000000000000000000, -2.815934000148506281E-22 ) ) ;
#131 = EDGE_CURVE ( 'NONE', #116, #116, #149, .T. ) ;
#132 = CARTESIAN_POINT ( 'NONE',  ( 2.000000000000024869, 0.0000000000000000000, 7.141765964257547950 ) ) ;
#133 = MECHANICAL_CONTEXT ( 'NONE', #243, 'mechanical' ) ;
#134 = DIRECTION ( 'NONE',  ( 1.000000000000000000, 0.0000000000000000000, 0.0000000000000000000 ) ) ;
#135 = ORIENTED_EDGE ( 'NONE', *, *, #26, .T. ) ;
#136 = PRODUCT_DEFINITION ( 'UNKNOWN', '', #101, #33 ) ;
#137 = EDGE_LOOP ( 'NONE', ( #123 ) ) ;
#138 = CARTESIAN_POINT ( 'NONE',  ( 8.379555213223515320E-15, 0.0000000000000000000, 2.399999999999999023 ) ) ;
#139 = APPROVAL_PERSON_ORGANIZATION ( #151, #59, #6 ) ;
#140 = CARTESIAN_POINT ( 'NONE',  ( -4.915890506466203054E-37, 0.0000000000000000000, -1.407967000074253141E-22 ) ) ;
#141 = DIRECTION ( 'NONE',  ( 1.000000000000000000, 0.0000000000000000000, -3.469446951953614189E-15 ) ) ;
#142 = EDGE_CURVE ( 'NONE', #69, #69, #84, .T. ) ;
#143 = FACE_OUTER_BOUND ( 'NONE', #77, .T. ) ;
#144 = FACE_OUTER_BOUND ( 'NONE', #199, .T. ) ;
#145 = DIRECTION ( 'NONE',  ( 1.000000000000000000, 0.0000000000000000000, -3.469446951953614189E-15 ) ) ;
#146 = ADVANCED_FACE ( 'NONE', ( #110, #127 ), #205, .T. ) ;
#147 = CALENDAR_DATE ( 2021, 9, 11 ) ;
#148 = VERTEX_POINT ( 'NONE', #212 ) ;
#149 = CIRCLE ( 'NONE', #52, 2.000000000000000000 ) ;
#150 = APPROVAL_PERSON_ORGANIZATION ( #65, #124, #167 ) ;
#151 = PERSON_AND_ORGANIZATION ( #107, #91 ) ;
#152 = APPLICATION_PROTOCOL_DEFINITION ( 'international standard', 'config_control_design', 1994, #18 ) ;
#153 = VERTEX_POINT ( 'NONE', #97 ) ;
#154 = CC_DESIGN_APPROVAL ( #195, ( #136 ) ) ;
#155 = DIRECTION ( 'NONE',  ( 0.0000000000000000000, 0.0000000000000000000, 1.000000000000000000 ) ) ;
#156 = ADVANCED_BREP_SHAPE_REPRESENTATION ( '334928', ( #105, #29, #215 ), #182 ) ;
#157 = PERSON_AND_ORGANIZATION ( #107, #91 ) ;
#158 = EDGE_LOOP ( 'NONE', ( #236 ) ) ;
#159 = EDGE_CURVE ( 'NONE', #28, #28, #40, .T. ) ;
#160 = ORIENTED_EDGE ( 'NONE', *, *, #159, .F. ) ;
#161 = AXIS2_PLACEMENT_3D ( 'NONE', #213, #192, #47 ) ;
#162 = ORIENTED_EDGE ( 'NONE', *, *, #159, .T. ) ;
#163 = AXIS2_PLACEMENT_3D ( 'NONE', #140, #39, #17 ) ;
#164 = CARTESIAN_POINT ( 'NONE',  ( 1.326762908760390423E-13, 0.0000000000000000000, 38.00000000000000000 ) ) ;
#165 = AXIS2_PLACEMENT_3D ( 'NONE', #81, #79, #141 ) ;
#166 = CARTESIAN_POINT ( 'NONE',  ( 2.493534259059028859E-14, 0.0000000000000000000, 7.141765964257554167 ) ) ;
#167 = APPROVAL_ROLE ( '' ) ;
#168 = FACE_BOUND ( 'NONE', #235, .T. ) ;
#169 = DATE_AND_TIME ( #147, #112 ) ;
#170 = DIRECTION ( 'NONE',  ( -1.000000000000000000, 0.0000000000000000000, 4.336808689942017736E-15 ) ) ;
#171 = ADVANCED_FACE ( 'NONE', ( #89 ), #2, .T. ) ;
#172 = DIRECTION ( 'NONE',  ( 3.491481338843133355E-15, -0.0000000000000000000, 1.000000000000000000 ) ) ;
#173 = CIRCLE ( 'NONE', #165, 2.000000000000000000 ) ;
#174 =( NAMED_UNIT ( * ) SI_UNIT ( $, .STERADIAN. ) SOLID_ANGLE_UNIT ( ) );
#175 = DATE_AND_TIME ( #103, #56 ) ;
#176 = PERSON_AND_ORGANIZATION_ROLE ( 'creator' ) ;
#177 = ADVANCED_FACE ( 'NONE', ( #168, #185 ), #41, .T. ) ;
#178 = DATE_TIME_ROLE ( 'classification_date' ) ;
#179 = CC_DESIGN_PERSON_AND_ORGANIZATION_ASSIGNMENT ( #85, #211, ( #70 ) ) ;
#180 = EDGE_LOOP ( 'NONE', ( #217 ) ) ;
#181 = ORIENTED_EDGE ( 'NONE', *, *, #238, .T. ) ;
#182 =( GEOMETRIC_REPRESENTATION_CONTEXT ( 3 ) GLOBAL_UNCERTAINTY_ASSIGNED_CONTEXT ( ( #15 ) ) GLOBAL_UNIT_ASSIGNED_CONTEXT ( ( #31, #68, #174 ) ) REPRESENTATION_CONTEXT ( 'NONE', 'WORKASPACE' ) );
#183 = PLANE ( 'NONE',  #121 ) ;
#184 = CC_DESIGN_DATE_AND_TIME_ASSIGNMENT ( #87, #98, ( #136 ) ) ;
#185 = FACE_OUTER_BOUND ( 'NONE', #180, .T. ) ;
#186 = CC_DESIGN_APPROVAL ( #59, ( #101 ) ) ;
#187 = CARTESIAN_POINT ( 'NONE',  ( 0.0000000000000000000, 0.0000000000000000000, 0.0000000000000000000 ) ) ;
#188 = CARTESIAN_POINT ( 'NONE',  ( 2.493534259059028859E-14, 0.0000000000000000000, 7.141765964257554167 ) ) ;
#189 = DIRECTION ( 'NONE',  ( -1.000000000000000000, 0.0000000000000000000, 3.491481338843133355E-15 ) ) ;
#190 = CONICAL_SURFACE ( 'NONE', #76, 1.600000000000000089, 0.7853981633974512766 ) ;
#191 = SECURITY_CLASSIFICATION ( '', '', #197 ) ;
#192 = DIRECTION ( 'NONE',  ( 3.491481338843133355E-15, -0.0000000000000000000, 1.000000000000000000 ) ) ;
#193 = PERSON_AND_ORGANIZATION ( #107, #91 ) ;
#194 = CALENDAR_DATE ( 2021, 9, 11 ) ;
#195 = APPROVAL ( #232, 'UNSPECIFIED' ) ;
#196 = CC_DESIGN_PERSON_AND_ORGANIZATION_ASSIGNMENT ( #88, #12, ( #101 ) ) ;
#197 = SECURITY_CLASSIFICATION_LEVEL ( 'unclassified' ) ;
#198 = AXIS2_PLACEMENT_3D ( 'NONE', #187, #63, #45 ) ;
#199 = EDGE_LOOP ( 'NONE', ( #201 ) ) ;
#200 = ORIENTED_EDGE ( 'NONE', *, *, #142, .T. ) ;
#201 = ORIENTED_EDGE ( 'NONE', *, *, #202, .T. ) ;
#202 = EDGE_CURVE ( 'NONE', #153, #153, #173, .T. ) ;
#203 = DIRECTION ( 'NONE',  ( 1.000000000000000000, 0.0000000000000000000, -3.252606517456515274E-15 ) ) ;
#204 = AXIS2_PLACEMENT_3D ( 'NONE', #114, #129, #22 ) ;
#205 = CYLINDRICAL_SURFACE ( 'NONE', #204, 0.7999999999999997113 ) ;
#206 = DIRECTION ( 'NONE',  ( -3.491481338843133355E-15, 0.0000000000000000000, -1.000000000000000000 ) ) ;
#207 = DIRECTION ( 'NONE',  ( 3.491481338843133355E-15, -0.0000000000000000000, 1.000000000000000000 ) ) ;
#208 = FACE_OUTER_BOUND ( 'NONE', #158, .T. ) ;
#209 = CARTESIAN_POINT ( 'NONE',  ( 0.0000000000000000000, 0.0000000000000000000, 0.0000000000000000000 ) ) ;
#210 = PRODUCT_RELATED_PRODUCT_CATEGORY ( 'detail', '', ( #70 ) ) ;
#211 = PERSON_AND_ORGANIZATION_ROLE ( 'design_owner' ) ;
#212 = CARTESIAN_POINT ( 'NONE',  ( 0.8000000000000078160, 0.0000000000000000000, 2.399999999999996358 ) ) ;
#213 = CARTESIAN_POINT ( 'NONE',  ( 8.379555213223516897E-15, 0.0000000000000000000, 2.399999999999999467 ) ) ;
#214 = PERSON_AND_ORGANIZATION ( #107, #91 ) ;
#215 = AXIS2_PLACEMENT_3D ( 'NONE', #209, #155, #134 ) ;
#216 = ORIENTED_EDGE ( 'NONE', *, *, #99, .F. ) ;
#217 = ORIENTED_EDGE ( 'NONE', *, *, #131, .F. ) ;
#218 = ORIENTED_EDGE ( 'NONE', *, *, #202, .F. ) ;
#219 = CLOSED_SHELL ( 'NONE', ( #71, #146, #237 ) ) ;
#220 = ORIENTED_EDGE ( 'NONE', *, *, #99, .T. ) ;
#221 = CC_DESIGN_PERSON_AND_ORGANIZATION_ASSIGNMENT ( #157, #120, ( #191 ) ) ;
#222 = ADVANCED_FACE ( 'NONE', ( #42, #143 ), #113, .T. ) ;
#223 = DIRECTION ( 'NONE',  ( 3.491481338843133355E-15, -0.0000000000000000000, 1.000000000000000000 ) ) ;
#224 = FACE_OUTER_BOUND ( 'NONE', #54, .T. ) ;
#225 = FACE_OUTER_BOUND ( 'NONE', #125, .T. ) ;
#226 = CC_DESIGN_APPROVAL ( #124, ( #191 ) ) ;
#227 = CARTESIAN_POINT ( 'NONE',  ( 8.379555213223516897E-15, -5.204170427930419311E-16, 2.399999999999999467 ) ) ;
#228 = APPROVAL_STATUS ( 'not_yet_approved' ) ;
#229 = FACE_OUTER_BOUND ( 'NONE', #108, .T. ) ;
#230 = LOCAL_TIME ( 7, 59, 42.00000000000000000, #34 ) ;
#231 = CC_DESIGN_PERSON_AND_ORGANIZATION_ASSIGNMENT ( #104, #176, ( #136 ) ) ;
#232 = APPROVAL_STATUS ( 'not_yet_approved' ) ;
#233 = VERTEX_POINT ( 'NONE', #119 ) ;
#234 = CALENDAR_DATE ( 2021, 9, 11 ) ;
#235 = EDGE_LOOP ( 'NONE', ( #220 ) ) ;
#236 = ORIENTED_EDGE ( 'NONE', *, *, #142, .F. ) ;
#237 = ADVANCED_FACE ( 'NONE', ( #225 ), #96, .F. ) ;
#238 = EDGE_CURVE ( 'NONE', #49, #49, #50, .T. ) ;
#239 = ADVANCED_FACE ( 'NONE', ( #229, #64 ), #95, .F. ) ;
#240 = AXIS2_PLACEMENT_3D ( 'NONE', #227, #126, #78 ) ;
#241 = CARTESIAN_POINT ( 'NONE',  ( 1.326762908760390423E-13, 0.0000000000000000000, 38.00000000000000000 ) ) ;
#242 = DIRECTION ( 'NONE',  ( 1.000000000000000000, 0.0000000000000000000, -3.469446951953614189E-15 ) ) ;
#243 = APPLICATION_CONTEXT ( 'configuration controlled 3d designs of mechanical parts and assemblies' ) ;
ENDSEC;
END-ISO-10303-21;
