ISO-10303-21;
HEADER;
FILE_DESCRIPTION (( 'STEP AP203' ),
    '1' );
FILE_NAME ('334927.step',
    '2021-11-09T06:59:42',
    ( '' ),
    ( '' ),
    'SwSTEP 2.0',
    'SolidWorks 2019',
    '' );
FILE_SCHEMA (( 'CONFIG_CONTROL_DESIGN' ));
ENDSEC;

DATA;
#1 = APPLICATION_PROTOCOL_DEFINITION ( 'international standard', 'config_control_design', 1994, #179 ) ;
#2 = AXIS2_PLACEMENT_3D ( 'NONE', #184, #30, #235 ) ;
#3 = ADVANCED_FACE ( 'NONE', ( #136, #141 ), #69, .T. ) ;
#4 = APPROVAL_DATE_TIME ( #243, #21 ) ;
#5 = AXIS2_PLACEMENT_3D ( 'NONE', #14, #48, #127 ) ;
#6 = ORIENTED_EDGE ( 'NONE', *, *, #11, .F. ) ;
#7 = PERSON_AND_ORGANIZATION ( #45, #192 ) ;
#8 = ORIENTED_EDGE ( 'NONE', *, *, #61, .T. ) ;
#9 = FACE_OUTER_BOUND ( 'NONE', #83, .T. ) ;
#10 = CARTESIAN_POINT ( 'NONE',  ( 9.663156744622304852E-15, 0.0000000000000000000, 2.767638090205028156 ) ) ;
#11 = EDGE_CURVE ( 'NONE', #111, #111, #90, .T. ) ;
#12 = DIRECTION ( 'NONE',  ( 1.000000000000000000, 0.0000000000000000000, -3.469446951953614189E-15 ) ) ;
#13 = CARTESIAN_POINT ( 'NONE',  ( 1.326762908760390423E-13, 0.0000000000000000000, 38.00000000000000000 ) ) ;
#14 = CARTESIAN_POINT ( 'NONE',  ( 0.0000000000000000000, 0.0000000000000000000, 0.0000000000000000000 ) ) ;
#15 = CALENDAR_DATE ( 2021, 9, 11 ) ;
#16 = COORDINATED_UNIVERSAL_TIME_OFFSET ( 1, 0, .AHEAD. ) ;
#17 = CC_DESIGN_PERSON_AND_ORGANIZATION_ASSIGNMENT ( #93, #42, ( #229 ) ) ;
#18 = AXIS2_PLACEMENT_3D ( 'NONE', #10, #197, #164 ) ;
#19 = CARTESIAN_POINT ( 'NONE',  ( 2.000000000000025313, 0.0000000000000000000, 7.178368504635996850 ) ) ;
#20 = DIRECTION ( 'NONE',  ( 1.000000000000000000, 0.0000000000000000000, 0.0000000000000000000 ) ) ;
#21 = APPROVAL ( #222, 'UNSPECIFIED' ) ;
#22 = DESIGN_CONTEXT ( 'detailed design', #179, 'design' ) ;
#23 = EDGE_LOOP ( 'NONE', ( #64 ) ) ;
#24 = DATE_AND_TIME ( #155, #26 ) ;
#25 = CALENDAR_DATE ( 2021, 9, 11 ) ;
#26 = LOCAL_TIME ( 7, 59, 42.00000000000000000, #80 ) ;
#27 = ADVANCED_FACE ( 'NONE', ( #158, #143 ), #221, .T. ) ;
#28 = CARTESIAN_POINT ( 'NONE',  ( 1.326762908760390423E-13, 0.0000000000000000000, 38.00000000000000000 ) ) ;
#29 = AXIS2_PLACEMENT_3D ( 'NONE', #241, #148, #35 ) ;
#30 = DIRECTION ( 'NONE',  ( 3.491481338843133355E-15, -0.0000000000000000000, 1.000000000000000000 ) ) ;
#31 = APPROVAL_PERSON_ORGANIZATION ( #70, #21, #38 ) ;
#32 = DIRECTION ( 'NONE',  ( 1.000000000000000000, 0.0000000000000000000, -3.469446951953614189E-15 ) ) ;
#33 = CARTESIAN_POINT ( 'NONE',  ( 7.855833012397048472E-15, -4.878909776184766995E-16, 2.249999999999999556 ) ) ;
#34 = AXIS2_PLACEMENT_3D ( 'NONE', #146, #46, #237 ) ;
#35 = DIRECTION ( 'NONE',  ( 1.000000000000000000, 0.0000000000000000000, -3.491481338843132961E-15 ) ) ;
#36 = CIRCLE ( 'NONE', #18, 0.8181483474218598229 ) ;
#37 = CC_DESIGN_APPROVAL ( #71, ( #238 ) ) ;
#38 = APPROVAL_ROLE ( '' ) ;
#39 = EDGE_CURVE ( 'NONE', #203, #203, #220, .T. ) ;
#40 =( NAMED_UNIT ( * ) PLANE_ANGLE_UNIT ( ) SI_UNIT ( $, .RADIAN. ) );
#41 = AXIS2_PLACEMENT_3D ( 'NONE', #65, #125, #101 ) ;
#42 = PERSON_AND_ORGANIZATION_ROLE ( 'design_owner' ) ;
#43 = APPROVAL_ROLE ( '' ) ;
#44 = CC_DESIGN_DATE_AND_TIME_ASSIGNMENT ( #129, #242, ( #238 ) ) ;
#45 = PERSON ( 'UNSPECIFIED', 'UNSPECIFIED', 'UNSPECIFIED', ('UNSPECIFIED'), ('UNSPECIFIED'), ('UNSPECIFIED') ) ;
#46 = DIRECTION ( 'NONE',  ( 3.491481338843133355E-15, -0.0000000000000000000, 1.000000000000000000 ) ) ;
#47 = PLANE ( 'NONE',  #115 ) ;
#48 = DIRECTION ( 'NONE',  ( 3.491481338843133355E-15, -0.0000000000000000000, 1.000000000000000000 ) ) ;
#49 = DIRECTION ( 'NONE',  ( -1.000000000000000000, 0.0000000000000000000, 3.491481338843133355E-15 ) ) ;
#50 = CLOSED_SHELL ( 'NONE', ( #219, #3, #84 ) ) ;
#51 = PERSON_AND_ORGANIZATION_ROLE ( 'creator' ) ;
#52 = APPROVAL_PERSON_ORGANIZATION ( #7, #78, #76 ) ;
#53 = CARTESIAN_POINT ( 'NONE',  ( 0.7500000000000002220, 0.0000000000000000000, -2.618611285725750781E-15 ) ) ;
#54 = VERTEX_POINT ( 'NONE', #94 ) ;
#55 = APPROVAL_DATE_TIME ( #131, #71 ) ;
#56 = DATE_AND_TIME ( #25, #236 ) ;
#57 = ORIENTED_EDGE ( 'NONE', *, *, #199, .F. ) ;
#58 = AXIS2_PLACEMENT_3D ( 'NONE', #239, #213, #49 ) ;
#59 = EDGE_LOOP ( 'NONE', ( #117 ) ) ;
#60 = CONICAL_SURFACE ( 'NONE', #120, 1.600000000000000089, 0.7853981633974512766 ) ;
#61 = EDGE_CURVE ( 'NONE', #204, #204, #119, .T. ) ;
#62 = AXIS2_PLACEMENT_3D ( 'NONE', #206, #152, #20 ) ;
#63 = DATE_TIME_ROLE ( 'classification_date' ) ;
#64 = ORIENTED_EDGE ( 'NONE', *, *, #39, .T. ) ;
#65 = CARTESIAN_POINT ( 'NONE',  ( -9.831781012932406109E-37, 0.0000000000000000000, -2.815934000148506281E-22 ) ) ;
#66 = DIRECTION ( 'NONE',  ( 3.491481338843133355E-15, -0.0000000000000000000, 1.000000000000000000 ) ) ;
#67 = PLANE ( 'NONE',  #2 ) ;
#68 = DIRECTION ( 'NONE',  ( 3.491481338843133355E-15, -0.0000000000000000000, 1.000000000000000000 ) ) ;
#69 = CYLINDRICAL_SURFACE ( 'NONE', #5, 0.7500000000000000000 ) ;
#70 = PERSON_AND_ORGANIZATION ( #45, #192 ) ;
#71 = APPROVAL ( #168, 'UNSPECIFIED' ) ;
#72 =( LENGTH_UNIT ( ) NAMED_UNIT ( * ) SI_UNIT ( .MILLI., .METRE. ) );
#73 = PRODUCT_DEFINITION_SHAPE ( 'NONE', 'NONE',  #238 ) ;
#74 = VERTEX_POINT ( 'NONE', #149 ) ;
#75 = CARTESIAN_POINT ( 'NONE',  ( -4.915890506466203054E-37, 0.0000000000000000000, -1.407967000074253141E-22 ) ) ;
#76 = APPROVAL_ROLE ( '' ) ;
#77 = ORIENTED_EDGE ( 'NONE', *, *, #140, .T. ) ;
#78 = APPROVAL ( #193, 'UNSPECIFIED' ) ;
#79 = AXIS2_PLACEMENT_3D ( 'NONE', #161, #66, #85 ) ;
#80 = COORDINATED_UNIVERSAL_TIME_OFFSET ( 1, 0, .AHEAD. ) ;
#81 = ORIENTED_EDGE ( 'NONE', *, *, #169, .T. ) ;
#82 = COORDINATED_UNIVERSAL_TIME_OFFSET ( 1, 0, .AHEAD. ) ;
#83 = EDGE_LOOP ( 'NONE', ( #207 ) ) ;
#84 = ADVANCED_FACE ( 'NONE', ( #145 ), #47, .F. ) ;
#85 = DIRECTION ( 'NONE',  ( 1.000000000000000000, 0.0000000000000000000, -3.491481338843133355E-15 ) ) ;
#86 = APPROVAL_PERSON_ORGANIZATION ( #107, #71, #43 ) ;
#87 = FACE_OUTER_BOUND ( 'NONE', #194, .T. ) ;
#88 = DIRECTION ( 'NONE',  ( 3.491481338843133355E-15, -0.0000000000000000000, 1.000000000000000000 ) ) ;
#89 = DIRECTION ( 'NONE',  ( -3.491481338843133355E-15, 0.0000000000000000000, -1.000000000000000000 ) ) ;
#90 = CIRCLE ( 'NONE', #153, 2.000000000000000000 ) ;
#91 = MANIFOLD_SOLID_BREP ( 'Corps-Déplacer/Copier1[1]', #163 ) ;
#92 = DIRECTION ( 'NONE',  ( -3.491481338843133355E-15, 0.0000000000000000000, -1.000000000000000000 ) ) ;
#93 = PERSON_AND_ORGANIZATION ( #45, #192 ) ;
#94 = CARTESIAN_POINT ( 'NONE',  ( 0.8181483474218694818, 0.0000000000000000000, 2.767638090205025048 ) ) ;
#95 = DIRECTION ( 'NONE',  ( -1.000000000000000000, 0.0000000000000000000, 3.491481338843133355E-15 ) ) ;
#96 = CARTESIAN_POINT ( 'NONE',  ( 0.7500000000000075495, 0.0000000000000000000, 2.249999999999996447 ) ) ;
#97 = PERSON_AND_ORGANIZATION ( #45, #192 ) ;
#98 = EDGE_LOOP ( 'NONE', ( #142 ) ) ;
#99 = PERSON_AND_ORGANIZATION ( #45, #192 ) ;
#100 =( GEOMETRIC_REPRESENTATION_CONTEXT ( 3 ) GLOBAL_UNCERTAINTY_ASSIGNED_CONTEXT ( ( #224 ) ) GLOBAL_UNIT_ASSIGNED_CONTEXT ( ( #72, #40, #114 ) ) REPRESENTATION_CONTEXT ( 'NONE', 'WORKASPACE' ) );
#101 = DIRECTION ( 'NONE',  ( 1.000000000000000000, 0.0000000000000000000, -3.491481338843133355E-15 ) ) ;
#102 = PLANE ( 'NONE',  #58 ) ;
#103 = CC_DESIGN_PERSON_AND_ORGANIZATION_ASSIGNMENT ( #97, #208, ( #151 ) ) ;
#104 = FACE_BOUND ( 'NONE', #138, .T. ) ;
#105 = CARTESIAN_POINT ( 'NONE',  ( 2.506313967727589813E-14, 0.0000000000000000000, 7.178368504636003955 ) ) ;
#106 = CIRCLE ( 'NONE', #124, 0.7499999999999997780 ) ;
#107 = PERSON_AND_ORGANIZATION ( #45, #192 ) ;
#108 = ADVANCED_BREP_SHAPE_REPRESENTATION ( '334927', ( #91, #165, #62 ), #100 ) ;
#109 = COORDINATED_UNIVERSAL_TIME_OFFSET ( 1, 0, .AHEAD. ) ;
#110 = AXIS2_PLACEMENT_3D ( 'NONE', #28, #88, #162 ) ;
#111 = VERTEX_POINT ( 'NONE', #19 ) ;
#112 = ADVANCED_FACE ( 'NONE', ( #147, #218 ), #211, .F. ) ;
#113 = AXIS2_PLACEMENT_3D ( 'NONE', #75, #172, #95 ) ;
#114 =( NAMED_UNIT ( * ) SI_UNIT ( $, .STERADIAN. ) SOLID_ANGLE_UNIT ( ) );
#115 = AXIS2_PLACEMENT_3D ( 'NONE', #33, #92, #240 ) ;
#116 = ADVANCED_FACE ( 'NONE', ( #214 ), #102, .T. ) ;
#117 = ORIENTED_EDGE ( 'NONE', *, *, #140, .F. ) ;
#118 = EDGE_LOOP ( 'NONE', ( #8 ) ) ;
#119 = CIRCLE ( 'NONE', #110, 1.600000000000000089 ) ;
#120 = AXIS2_PLACEMENT_3D ( 'NONE', #13, #89, #182 ) ;
#121 = CC_DESIGN_APPROVAL ( #21, ( #151 ) ) ;
#122 = DIRECTION ( 'NONE',  ( 1.000000000000000000, 0.0000000000000000000, -3.469446951953614189E-15 ) ) ;
#123 = CC_DESIGN_PERSON_AND_ORGANIZATION_ASSIGNMENT ( #99, #176, ( #160 ) ) ;
#124 = AXIS2_PLACEMENT_3D ( 'NONE', #166, #128, #196 ) ;
#125 = DIRECTION ( 'NONE',  ( 3.491481338843133355E-15, -0.0000000000000000000, 1.000000000000000000 ) ) ;
#126 = CARTESIAN_POINT ( 'NONE',  ( 2.506313967727589813E-14, 0.0000000000000000000, 7.178368504636003955 ) ) ;
#127 = DIRECTION ( 'NONE',  ( 1.000000000000000000, 0.0000000000000000000, -3.491481338843133355E-15 ) ) ;
#128 = DIRECTION ( 'NONE',  ( 3.491481338843133355E-15, -0.0000000000000000000, 1.000000000000000000 ) ) ;
#129 = DATE_AND_TIME ( #15, #174 ) ;
#130 = VERTEX_POINT ( 'NONE', #53 ) ;
#131 = DATE_AND_TIME ( #223, #228 ) ;
#132 = LOCAL_TIME ( 7, 59, 42.00000000000000000, #109 ) ;
#133 = PERSON_AND_ORGANIZATION ( #45, #192 ) ;
#134 = PERSON_AND_ORGANIZATION_ROLE ( 'creator' ) ;
#135 = ORIENTED_EDGE ( 'NONE', *, *, #216, .F. ) ;
#136 = FACE_OUTER_BOUND ( 'NONE', #195, .T. ) ;
#137 = PERSON_AND_ORGANIZATION ( #45, #192 ) ;
#138 = EDGE_LOOP ( 'NONE', ( #209 ) ) ;
#139 = SHAPE_DEFINITION_REPRESENTATION ( #73, #108 ) ;
#140 = EDGE_CURVE ( 'NONE', #186, #186, #106, .T. ) ;
#141 = FACE_OUTER_BOUND ( 'NONE', #59, .T. ) ;
#142 = ORIENTED_EDGE ( 'NONE', *, *, #169, .F. ) ;
#143 = FACE_OUTER_BOUND ( 'NONE', #212, .T. ) ;
#144 = ADVANCED_FACE ( 'NONE', ( #201 ), #67, .T. ) ;
#145 = FACE_OUTER_BOUND ( 'NONE', #154, .T. ) ;
#146 = CARTESIAN_POINT ( 'NONE',  ( 7.855833012397046894E-15, 0.0000000000000000000, 2.249999999999999112 ) ) ;
#147 = FACE_OUTER_BOUND ( 'NONE', #175, .T. ) ;
#148 = DIRECTION ( 'NONE',  ( 3.491481338843133355E-15, -0.0000000000000000000, 1.000000000000000000 ) ) ;
#149 = CARTESIAN_POINT ( 'NONE',  ( 0.7500000000000075495, 0.0000000000000000000, 2.249999999999996447 ) ) ;
#150 = APPLICATION_PROTOCOL_DEFINITION ( 'international standard', 'config_control_design', 1994, #170 ) ;
#151 = PRODUCT_DEFINITION_FORMATION_WITH_SPECIFIED_SOURCE ( 'ANY', '', #229, .NOT_KNOWN. ) ;
#152 = DIRECTION ( 'NONE',  ( 0.0000000000000000000, 0.0000000000000000000, 1.000000000000000000 ) ) ;
#153 = AXIS2_PLACEMENT_3D ( 'NONE', #126, #183, #12 ) ;
#154 = EDGE_LOOP ( 'NONE', ( #77 ) ) ;
#155 = CALENDAR_DATE ( 2021, 9, 11 ) ;
#156 = EDGE_LOOP ( 'NONE', ( #230 ) ) ;
#157 = AXIS2_PLACEMENT_3D ( 'NONE', #105, #68, #122 ) ;
#158 = FACE_BOUND ( 'NONE', #234, .T. ) ;
#159 = CC_DESIGN_PERSON_AND_ORGANIZATION_ASSIGNMENT ( #133, #51, ( #238 ) ) ;
#160 = SECURITY_CLASSIFICATION ( '', '', #173 ) ;
#161 = CARTESIAN_POINT ( 'NONE',  ( 0.0000000000000000000, 0.0000000000000000000, 0.0000000000000000000 ) ) ;
#162 = DIRECTION ( 'NONE',  ( 1.000000000000000000, 0.0000000000000000000, -4.336808689942017736E-15 ) ) ;
#163 = CLOSED_SHELL ( 'NONE', ( #180, #202, #144, #112, #27, #116 ) ) ;
#164 = DIRECTION ( 'NONE',  ( 1.000000000000000000, 0.0000000000000000000, -3.710532561149436110E-15 ) ) ;
#165 = MANIFOLD_SOLID_BREP ( 'Corps-Déplacer/Copier1[2]', #50 ) ;
#166 = CARTESIAN_POINT ( 'NONE',  ( 7.855833012397046894E-15, 0.0000000000000000000, 2.249999999999999112 ) ) ;
#167 = CARTESIAN_POINT ( 'NONE',  ( 1.600000000000132871, 0.0000000000000000000, 37.99999999999999289 ) ) ;
#168 = APPROVAL_STATUS ( 'not_yet_approved' ) ;
#169 = EDGE_CURVE ( 'NONE', #74, #74, #215, .T. ) ;
#170 = APPLICATION_CONTEXT ( 'configuration controlled 3d designs of mechanical parts and assemblies' ) ;
#171 = CARTESIAN_POINT ( 'NONE',  ( 2.000000000000131450, 0.0000000000000000000, 37.59999999999999432 ) ) ;
#172 = DIRECTION ( 'NONE',  ( -3.491481338843133355E-15, 0.0000000000000000000, -1.000000000000000000 ) ) ;
#173 = SECURITY_CLASSIFICATION_LEVEL ( 'unclassified' ) ;
#174 = LOCAL_TIME ( 7, 59, 42.00000000000000000, #16 ) ;
#175 = EDGE_LOOP ( 'NONE', ( #81 ) ) ;
#176 = PERSON_AND_ORGANIZATION_ROLE ( 'classification_officer' ) ;
#177 = CC_DESIGN_PERSON_AND_ORGANIZATION_ASSIGNMENT ( #137, #134, ( #151 ) ) ;
#178 = EDGE_LOOP ( 'NONE', ( #135 ) ) ;
#179 = APPLICATION_CONTEXT ( 'configuration controlled 3d designs of mechanical parts and assemblies' ) ;
#180 = ADVANCED_FACE ( 'NONE', ( #181, #9 ), #217, .T. ) ;
#181 = FACE_OUTER_BOUND ( 'NONE', #156, .T. ) ;
#182 = DIRECTION ( 'NONE',  ( -1.000000000000000000, 0.0000000000000000000, 4.336808689942017736E-15 ) ) ;
#183 = DIRECTION ( 'NONE',  ( 3.491481338843133355E-15, -0.0000000000000000000, 1.000000000000000000 ) ) ;
#184 = CARTESIAN_POINT ( 'NONE',  ( 1.326762908760390423E-13, 0.0000000000000000000, 38.00000000000000000 ) ) ;
#185 = DIRECTION ( 'NONE',  ( 3.491481338843133355E-15, -0.0000000000000000000, 1.000000000000000000 ) ) ;
#186 = VERTEX_POINT ( 'NONE', #96 ) ;
#187 = CC_DESIGN_DATE_AND_TIME_ASSIGNMENT ( #56, #63, ( #160 ) ) ;
#188 = CALENDAR_DATE ( 2021, 9, 11 ) ;
#189 = CIRCLE ( 'NONE', #41, 0.7500000000000002220 ) ;
#190 = COORDINATED_UNIVERSAL_TIME_OFFSET ( 1, 0, .AHEAD. ) ;
#191 = CC_DESIGN_SECURITY_CLASSIFICATION ( #160, ( #151 ) ) ;
#192 = ORGANIZATION ( 'UNSPECIFIED', 'UNSPECIFIED', '' ) ;
#193 = APPROVAL_STATUS ( 'not_yet_approved' ) ;
#194 = EDGE_LOOP ( 'NONE', ( #57 ) ) ;
#195 = EDGE_LOOP ( 'NONE', ( #232 ) ) ;
#196 = DIRECTION ( 'NONE',  ( 1.000000000000000000, 0.0000000000000000000, -3.469446951953615372E-15 ) ) ;
#197 = DIRECTION ( 'NONE',  ( 3.491481338843133355E-15, -0.0000000000000000000, 1.000000000000000000 ) ) ;
#198 = FACE_OUTER_BOUND ( 'NONE', #23, .T. ) ;
#199 = EDGE_CURVE ( 'NONE', #130, #130, #189, .T. ) ;
#200 = CARTESIAN_POINT ( 'NONE',  ( 1.312796983405018142E-13, 0.0000000000000000000, 37.60000000000000142 ) ) ;
#201 = FACE_OUTER_BOUND ( 'NONE', #118, .T. ) ;
#202 = ADVANCED_FACE ( 'NONE', ( #198, #104 ), #60, .T. ) ;
#203 = VERTEX_POINT ( 'NONE', #171 ) ;
#204 = VERTEX_POINT ( 'NONE', #167 ) ;
#205 = CC_DESIGN_APPROVAL ( #78, ( #160 ) ) ;
#206 = CARTESIAN_POINT ( 'NONE',  ( 0.0000000000000000000, 0.0000000000000000000, 0.0000000000000000000 ) ) ;
#207 = ORIENTED_EDGE ( 'NONE', *, *, #11, .T. ) ;
#208 = PERSON_AND_ORGANIZATION_ROLE ( 'design_supplier' ) ;
#209 = ORIENTED_EDGE ( 'NONE', *, *, #61, .F. ) ;
#210 = APPROVAL_DATE_TIME ( #24, #78 ) ;
#211 = TOROIDAL_SURFACE ( 'NONE', #29, 2.750000000000000444, 2.000000000000000444 ) ;
#212 = EDGE_LOOP ( 'NONE', ( #6 ) ) ;
#213 = DIRECTION ( 'NONE',  ( -3.491481338843133355E-15, 0.0000000000000000000, -1.000000000000000000 ) ) ;
#214 = FACE_OUTER_BOUND ( 'NONE', #98, .T. ) ;
#215 = CIRCLE ( 'NONE', #34, 0.7499999999999997780 ) ;
#216 = EDGE_CURVE ( 'NONE', #54, #54, #36, .T. ) ;
#217 = CYLINDRICAL_SURFACE ( 'NONE', #79, 2.000000000000000000 ) ;
#218 = FACE_OUTER_BOUND ( 'NONE', #178, .T. ) ;
#219 = ADVANCED_FACE ( 'NONE', ( #87 ), #226, .T. ) ;
#220 = CIRCLE ( 'NONE', #227, 2.000000000000000000 ) ;
#221 = CONICAL_SURFACE ( 'NONE', #157, 2.000000000000000000, 0.2617993877991429130 ) ;
#222 = APPROVAL_STATUS ( 'not_yet_approved' ) ;
#223 = CALENDAR_DATE ( 2021, 9, 11 ) ;
#224 = UNCERTAINTY_MEASURE_WITH_UNIT (LENGTH_MEASURE( 1.000000000000000082E-05 ), #72, 'distance_accuracy_value', 'NONE');
#225 = MECHANICAL_CONTEXT ( 'NONE', #170, 'mechanical' ) ;
#226 = PLANE ( 'NONE',  #113 ) ;
#227 = AXIS2_PLACEMENT_3D ( 'NONE', #200, #185, #32 ) ;
#228 = LOCAL_TIME ( 7, 59, 42.00000000000000000, #190 ) ;
#229 = PRODUCT ( '334927', '334927', '', ( #225 ) ) ;
#230 = ORIENTED_EDGE ( 'NONE', *, *, #39, .F. ) ;
#231 = PRODUCT_RELATED_PRODUCT_CATEGORY ( 'detail', '', ( #229 ) ) ;
#232 = ORIENTED_EDGE ( 'NONE', *, *, #199, .T. ) ;
#233 = ORIENTED_EDGE ( 'NONE', *, *, #216, .T. ) ;
#234 = EDGE_LOOP ( 'NONE', ( #233 ) ) ;
#235 = DIRECTION ( 'NONE',  ( 1.000000000000000000, 0.0000000000000000000, -3.491481338843133355E-15 ) ) ;
#236 = LOCAL_TIME ( 7, 59, 42.00000000000000000, #82 ) ;
#237 = DIRECTION ( 'NONE',  ( 1.000000000000000000, 0.0000000000000000000, -3.469446951953615372E-15 ) ) ;
#238 = PRODUCT_DEFINITION ( 'UNKNOWN', '', #151, #22 ) ;
#239 = CARTESIAN_POINT ( 'NONE',  ( 7.855833012397048472E-15, -4.878909776184766995E-16, 2.249999999999999556 ) ) ;
#240 = DIRECTION ( 'NONE',  ( -1.000000000000000000, 0.0000000000000000000, 3.491481338843133355E-15 ) ) ;
#241 = CARTESIAN_POINT ( 'NONE',  ( 7.855833012397048472E-15, 0.0000000000000000000, 2.249999999999999556 ) ) ;
#242 = DATE_TIME_ROLE ( 'creation_date' ) ;
#243 = DATE_AND_TIME ( #188, #132 ) ;
ENDSEC;
END-ISO-10303-21;
