ISO-10303-21;
HEADER;
FILE_DESCRIPTION (( 'STEP AP203' ),
    '1' );
FILE_NAME ('334926.step',
    '2021-11-09T06:59:41',
    ( '' ),
    ( '' ),
    'SwSTEP 2.0',
    'SolidWorks 2019',
    '' );
FILE_SCHEMA (( 'CONFIG_CONTROL_DESIGN' ));
ENDSEC;

DATA;
#1 = DIRECTION ( 'NONE',  ( 3.491481338843133355E-15, -0.0000000000000000000, 1.000000000000000000 ) ) ;
#2 = FACE_OUTER_BOUND ( 'NONE', #238, .T. ) ;
#3 = DIRECTION ( 'NONE',  ( 1.000000000000000000, 0.0000000000000000000, -3.469446951953614189E-15 ) ) ;
#4 = PLANE ( 'NONE',  #123 ) ;
#5 = CARTESIAN_POINT ( 'NONE',  ( 0.7000000000000000666, 0.0000000000000000000, -2.444037218783593719E-15 ) ) ;
#6 =( GEOMETRIC_REPRESENTATION_CONTEXT ( 3 ) GLOBAL_UNCERTAINTY_ASSIGNED_CONTEXT ( ( #223 ) ) GLOBAL_UNIT_ASSIGNED_CONTEXT ( ( #159, #65, #8 ) ) REPRESENTATION_CONTEXT ( 'NONE', 'WORKASPACE' ) );
#7 = AXIS2_PLACEMENT_3D ( 'NONE', #215, #192, #36 ) ;
#8 =( NAMED_UNIT ( * ) SI_UNIT ( $, .STERADIAN. ) SOLID_ANGLE_UNIT ( ) );
#9 = LOCAL_TIME ( 7, 59, 41.00000000000000000, #115 ) ;
#10 = EDGE_CURVE ( 'NONE', #235, #235, #175, .T. ) ;
#11 = ORIENTED_EDGE ( 'NONE', *, *, #183, .F. ) ;
#12 = APPROVAL_DATE_TIME ( #186, #190 ) ;
#13 = PLANE ( 'NONE',  #71 ) ;
#14 = AXIS2_PLACEMENT_3D ( 'NONE', #116, #198, #178 ) ;
#15 = FACE_BOUND ( 'NONE', #33, .T. ) ;
#16 = CIRCLE ( 'NONE', #23, 2.000000000000000000 ) ;
#17 = CARTESIAN_POINT ( 'NONE',  ( 7.332110811570581624E-15, -4.553649124439116651E-16, 2.100000000000000089 ) ) ;
#18 = DIRECTION ( 'NONE',  ( -3.491481338843133355E-15, 0.0000000000000000000, -1.000000000000000000 ) ) ;
#19 = ADVANCED_FACE ( 'NONE', ( #77 ), #13, .F. ) ;
#20 = CARTESIAN_POINT ( 'NONE',  ( 7.332110811570581624E-15, 0.0000000000000000000, 2.100000000000000089 ) ) ;
#21 = MECHANICAL_CONTEXT ( 'NONE', #125, 'mechanical' ) ;
#22 = PERSON_AND_ORGANIZATION_ROLE ( 'creator' ) ;
#23 = AXIS2_PLACEMENT_3D ( 'NONE', #68, #217, #231 ) ;
#24 = DATE_AND_TIME ( #233, #100 ) ;
#25 = CIRCLE ( 'NONE', #165, 0.7681483474218605556 ) ;
#26 = CARTESIAN_POINT ( 'NONE',  ( 0.7000000000000070610, 0.0000000000000000000, 2.099999999999997424 ) ) ;
#27 = APPROVAL_ROLE ( '' ) ;
#28 = PRODUCT_DEFINITION ( 'UNKNOWN', '', #188, #227 ) ;
#29 = DATE_AND_TIME ( #236, #179 ) ;
#30 = CARTESIAN_POINT ( 'NONE',  ( -9.831781012932406109E-37, 0.0000000000000000000, -2.815934000148506281E-22 ) ) ;
#31 = ORIENTED_EDGE ( 'NONE', *, *, #226, .F. ) ;
#32 = CLOSED_SHELL ( 'NONE', ( #221, #136, #218, #84, #106, #35 ) ) ;
#33 = EDGE_LOOP ( 'NONE', ( #120 ) ) ;
#34 = CARTESIAN_POINT ( 'NONE',  ( 2.519093676396149821E-14, 0.0000000000000000000, 7.214971045014451967 ) ) ;
#35 = ADVANCED_FACE ( 'NONE', ( #124 ), #4, .T. ) ;
#36 = DIRECTION ( 'NONE',  ( 1.000000000000000000, 0.0000000000000000000, -4.336808689942017736E-15 ) ) ;
#37 = DIRECTION ( 'NONE',  ( 1.000000000000000000, 0.0000000000000000000, -3.491481338843133355E-15 ) ) ;
#38 = AXIS2_PLACEMENT_3D ( 'NONE', #148, #18, #210 ) ;
#39 = PLANE ( 'NONE',  #38 ) ;
#40 = EDGE_CURVE ( 'NONE', #69, #69, #160, .T. ) ;
#41 = FACE_OUTER_BOUND ( 'NONE', #53, .T. ) ;
#42 = ORGANIZATION ( 'UNSPECIFIED', 'UNSPECIFIED', '' ) ;
#43 = CARTESIAN_POINT ( 'NONE',  ( 0.7000000000000070610, 0.0000000000000000000, 2.099999999999997424 ) ) ;
#44 = APPROVAL_DATE_TIME ( #46, #127 ) ;
#45 = CALENDAR_DATE ( 2021, 9, 11 ) ;
#46 = DATE_AND_TIME ( #45, #243 ) ;
#47 = VERTEX_POINT ( 'NONE', #180 ) ;
#48 = CC_DESIGN_PERSON_AND_ORGANIZATION_ASSIGNMENT ( #203, #184, ( #50 ) ) ;
#49 = EDGE_LOOP ( 'NONE', ( #55 ) ) ;
#50 = SECURITY_CLASSIFICATION ( '', '', #54 ) ;
#51 = EDGE_LOOP ( 'NONE', ( #144 ) ) ;
#52 = PERSON_AND_ORGANIZATION_ROLE ( 'creator' ) ;
#53 = EDGE_LOOP ( 'NONE', ( #164 ) ) ;
#54 = SECURITY_CLASSIFICATION_LEVEL ( 'unclassified' ) ;
#55 = ORIENTED_EDGE ( 'NONE', *, *, #40, .T. ) ;
#56 = CARTESIAN_POINT ( 'NONE',  ( 1.312796983405018142E-13, 0.0000000000000000000, 37.60000000000000142 ) ) ;
#57 = CC_DESIGN_DATE_AND_TIME_ASSIGNMENT ( #29, #107, ( #50 ) ) ;
#58 = FACE_OUTER_BOUND ( 'NONE', #141, .T. ) ;
#59 = CARTESIAN_POINT ( 'NONE',  ( 0.0000000000000000000, 0.0000000000000000000, 0.0000000000000000000 ) ) ;
#60 = PERSON ( 'UNSPECIFIED', 'UNSPECIFIED', 'UNSPECIFIED', ('UNSPECIFIED'), ('UNSPECIFIED'), ('UNSPECIFIED') ) ;
#61 = PLANE ( 'NONE',  #193 ) ;
#62 = DIRECTION ( 'NONE',  ( 1.000000000000000000, 0.0000000000000000000, -3.469446951953614189E-15 ) ) ;
#63 = VERTEX_POINT ( 'NONE', #43 ) ;
#64 = APPROVAL_PERSON_ORGANIZATION ( #163, #190, #121 ) ;
#65 =( NAMED_UNIT ( * ) PLANE_ANGLE_UNIT ( ) SI_UNIT ( $, .RADIAN. ) );
#66 = AXIS2_PLACEMENT_3D ( 'NONE', #59, #128, #112 ) ;
#67 = APPLICATION_CONTEXT ( 'configuration controlled 3d designs of mechanical parts and assemblies' ) ;
#68 = CARTESIAN_POINT ( 'NONE',  ( 2.519093676396149821E-14, 0.0000000000000000000, 7.214971045014451967 ) ) ;
#69 = VERTEX_POINT ( 'NONE', #137 ) ;
#70 = ADVANCED_FACE ( 'NONE', ( #110 ), #39, .T. ) ;
#71 = AXIS2_PLACEMENT_3D ( 'NONE', #17, #195, #147 ) ;
#72 = CALENDAR_DATE ( 2021, 9, 11 ) ;
#73 = EDGE_LOOP ( 'NONE', ( #168 ) ) ;
#74 = AXIS2_PLACEMENT_3D ( 'NONE', #20, #131, #37 ) ;
#75 = ADVANCED_FACE ( 'NONE', ( #109, #95 ), #150, .T. ) ;
#76 = DIRECTION ( 'NONE',  ( 1.000000000000000000, 0.0000000000000000000, -3.717264591378874374E-15 ) ) ;
#77 = FACE_OUTER_BOUND ( 'NONE', #73, .T. ) ;
#78 = DIRECTION ( 'NONE',  ( 3.491481338843133355E-15, -0.0000000000000000000, 1.000000000000000000 ) ) ;
#79 = FACE_OUTER_BOUND ( 'NONE', #49, .T. ) ;
#80 = DIRECTION ( 'NONE',  ( 3.491481338843133355E-15, -0.0000000000000000000, 1.000000000000000000 ) ) ;
#81 = CARTESIAN_POINT ( 'NONE',  ( 0.7681483474218696594, 0.0000000000000000000, 2.617638090205026469 ) ) ;
#82 = APPROVAL_ROLE ( '' ) ;
#83 = DIRECTION ( 'NONE',  ( 1.000000000000000000, 0.0000000000000000000, -3.717264591378874374E-15 ) ) ;
#84 = ADVANCED_FACE ( 'NONE', ( #113, #171 ), #241, .F. ) ;
#85 = MANIFOLD_SOLID_BREP ( 'Corps-Déplacer/Copier1[1]', #32 ) ;
#86 = CC_DESIGN_APPROVAL ( #190, ( #50 ) ) ;
#87 = ORIENTED_EDGE ( 'NONE', *, *, #10, .F. ) ;
#88 = PERSON_AND_ORGANIZATION ( #60, #42 ) ;
#89 = ORIENTED_EDGE ( 'NONE', *, *, #232, .F. ) ;
#90 = EDGE_LOOP ( 'NONE', ( #169 ) ) ;
#91 = CC_DESIGN_PERSON_AND_ORGANIZATION_ASSIGNMENT ( #88, #52, ( #188 ) ) ;
#92 = DIRECTION ( 'NONE',  ( -1.000000000000000000, 0.0000000000000000000, 3.491481338843133355E-15 ) ) ;
#93 = CONICAL_SURFACE ( 'NONE', #172, 2.000000000000000000, 0.2617993877991428020 ) ;
#94 = DIRECTION ( 'NONE',  ( -1.000000000000000000, 0.0000000000000000000, 4.336808689942017736E-15 ) ) ;
#95 = FACE_OUTER_BOUND ( 'NONE', #162, .T. ) ;
#96 = DIRECTION ( 'NONE',  ( 1.000000000000000000, 0.0000000000000000000, -3.491481338843133750E-15 ) ) ;
#97 = DIRECTION ( 'NONE',  ( 1.000000000000000000, 0.0000000000000000000, -3.387477461480715227E-15 ) ) ;
#98 = DATE_AND_TIME ( #182, #9 ) ;
#99 = DATE_TIME_ROLE ( 'creation_date' ) ;
#100 = LOCAL_TIME ( 7, 59, 41.00000000000000000, #152 ) ;
#101 = APPLICATION_PROTOCOL_DEFINITION ( 'international standard', 'config_control_design', 1994, #67 ) ;
#102 = CONICAL_SURFACE ( 'NONE', #155, 1.600000000000000089, 0.7853981633974512766 ) ;
#103 = APPLICATION_PROTOCOL_DEFINITION ( 'international standard', 'config_control_design', 1994, #125 ) ;
#104 = VERTEX_POINT ( 'NONE', #81 ) ;
#105 = APPROVAL_STATUS ( 'not_yet_approved' ) ;
#106 = ADVANCED_FACE ( 'NONE', ( #15, #2 ), #93, .T. ) ;
#107 = DATE_TIME_ROLE ( 'classification_date' ) ;
#108 = ORIENTED_EDGE ( 'NONE', *, *, #10, .T. ) ;
#109 = FACE_OUTER_BOUND ( 'NONE', #138, .T. ) ;
#110 = FACE_OUTER_BOUND ( 'NONE', #204, .T. ) ;
#111 = CIRCLE ( 'NONE', #181, 2.000000000000000000 ) ;
#112 = DIRECTION ( 'NONE',  ( 1.000000000000000000, 0.0000000000000000000, -3.491481338843133355E-15 ) ) ;
#113 = FACE_OUTER_BOUND ( 'NONE', #51, .T. ) ;
#114 = DIRECTION ( 'NONE',  ( 3.491481338843133355E-15, -0.0000000000000000000, 1.000000000000000000 ) ) ;
#115 = COORDINATED_UNIVERSAL_TIME_OFFSET ( 1, 0, .AHEAD. ) ;
#116 = CARTESIAN_POINT ( 'NONE',  ( 0.0000000000000000000, 0.0000000000000000000, 0.0000000000000000000 ) ) ;
#117 = COORDINATED_UNIVERSAL_TIME_OFFSET ( 1, 0, .AHEAD. ) ;
#118 = EDGE_LOOP ( 'NONE', ( #209 ) ) ;
#119 = CIRCLE ( 'NONE', #214, 0.6999999999999996225 ) ;
#120 = ORIENTED_EDGE ( 'NONE', *, *, #183, .T. ) ;
#121 = APPROVAL_ROLE ( '' ) ;
#122 = ORIENTED_EDGE ( 'NONE', *, *, #139, .F. ) ;
#123 = AXIS2_PLACEMENT_3D ( 'NONE', #130, #176, #92 ) ;
#124 = FACE_OUTER_BOUND ( 'NONE', #90, .T. ) ;
#125 = APPLICATION_CONTEXT ( 'configuration controlled 3d designs of mechanical parts and assemblies' ) ;
#126 = DIRECTION ( 'NONE',  ( 3.491481338843133355E-15, -0.0000000000000000000, 1.000000000000000000 ) ) ;
#127 = APPROVAL ( #220, 'UNSPECIFIED' ) ;
#128 = DIRECTION ( 'NONE',  ( 3.491481338843133355E-15, -0.0000000000000000000, 1.000000000000000000 ) ) ;
#129 = AXIS2_PLACEMENT_3D ( 'NONE', #145, #80, #96 ) ;
#130 = CARTESIAN_POINT ( 'NONE',  ( 7.332110811570581624E-15, -4.553649124439116651E-16, 2.100000000000000089 ) ) ;
#131 = DIRECTION ( 'NONE',  ( 3.491481338843133355E-15, -0.0000000000000000000, 1.000000000000000000 ) ) ;
#132 = EDGE_CURVE ( 'NONE', #63, #63, #119, .T. ) ;
#133 = CARTESIAN_POINT ( 'NONE',  ( 2.000000000000025313, 0.0000000000000000000, 7.214971045014444861 ) ) ;
#134 = CC_DESIGN_SECURITY_CLASSIFICATION ( #50, ( #188 ) ) ;
#135 = CLOSED_SHELL ( 'NONE', ( #70, #75, #19 ) ) ;
#136 = ADVANCED_FACE ( 'NONE', ( #58, #213 ), #102, .T. ) ;
#137 = CARTESIAN_POINT ( 'NONE',  ( 1.600000000000132871, 0.0000000000000000000, 37.99999999999999289 ) ) ;
#138 = EDGE_LOOP ( 'NONE', ( #108 ) ) ;
#139 = EDGE_CURVE ( 'NONE', #47, #47, #111, .T. ) ;
#140 = APPROVAL_PERSON_ORGANIZATION ( #177, #239, #82 ) ;
#141 = EDGE_LOOP ( 'NONE', ( #208 ) ) ;
#142 = CIRCLE ( 'NONE', #206, 0.6999999999999996225 ) ;
#143 = SHAPE_DEFINITION_REPRESENTATION ( #229, #158 ) ;
#144 = ORIENTED_EDGE ( 'NONE', *, *, #132, .T. ) ;
#145 = CARTESIAN_POINT ( 'NONE',  ( 0.0000000000000000000, 0.0000000000000000000, 0.0000000000000000000 ) ) ;
#146 = CARTESIAN_POINT ( 'NONE',  ( 1.326762908760390423E-13, 0.0000000000000000000, 38.00000000000000000 ) ) ;
#147 = DIRECTION ( 'NONE',  ( -1.000000000000000000, 0.0000000000000000000, 3.491481338843133355E-15 ) ) ;
#148 = CARTESIAN_POINT ( 'NONE',  ( -4.915890506466203054E-37, 0.0000000000000000000, -1.407967000074253141E-22 ) ) ;
#149 = CC_DESIGN_DATE_AND_TIME_ASSIGNMENT ( #98, #99, ( #28 ) ) ;
#150 = CYLINDRICAL_SURFACE ( 'NONE', #129, 0.6999999999999998446 ) ;
#151 = VERTEX_POINT ( 'NONE', #26 ) ;
#152 = COORDINATED_UNIVERSAL_TIME_OFFSET ( 1, 0, .AHEAD. ) ;
#153 = CC_DESIGN_APPROVAL ( #239, ( #188 ) ) ;
#154 = VERTEX_POINT ( 'NONE', #133 ) ;
#155 = AXIS2_PLACEMENT_3D ( 'NONE', #146, #228, #94 ) ;
#156 = CC_DESIGN_PERSON_AND_ORGANIZATION_ASSIGNMENT ( #200, #22, ( #28 ) ) ;
#157 = PERSON_AND_ORGANIZATION ( #60, #42 ) ;
#158 = ADVANCED_BREP_SHAPE_REPRESENTATION ( '334926', ( #85, #167, #14 ), #6 ) ;
#159 =( LENGTH_UNIT ( ) NAMED_UNIT ( * ) SI_UNIT ( .MILLI., .METRE. ) );
#160 = CIRCLE ( 'NONE', #7, 1.600000000000000089 ) ;
#161 = PERSON_AND_ORGANIZATION ( #60, #42 ) ;
#162 = EDGE_LOOP ( 'NONE', ( #31 ) ) ;
#163 = PERSON_AND_ORGANIZATION ( #60, #42 ) ;
#164 = ORIENTED_EDGE ( 'NONE', *, *, #232, .T. ) ;
#165 = AXIS2_PLACEMENT_3D ( 'NONE', #222, #173, #97 ) ;
#166 = COORDINATED_UNIVERSAL_TIME_OFFSET ( 1, 0, .AHEAD. ) ;
#167 = MANIFOLD_SOLID_BREP ( 'Corps-Déplacer/Copier1[2]', #135 ) ;
#168 = ORIENTED_EDGE ( 'NONE', *, *, #226, .T. ) ;
#169 = ORIENTED_EDGE ( 'NONE', *, *, #132, .F. ) ;
#170 = CC_DESIGN_PERSON_AND_ORGANIZATION_ASSIGNMENT ( #161, #207, ( #188 ) ) ;
#171 = FACE_OUTER_BOUND ( 'NONE', #187, .T. ) ;
#172 = AXIS2_PLACEMENT_3D ( 'NONE', #34, #1, #62 ) ;
#173 = DIRECTION ( 'NONE',  ( 3.491481338843133355E-15, -0.0000000000000000000, 1.000000000000000000 ) ) ;
#174 = DIRECTION ( 'NONE',  ( 1.000000000000000000, 0.0000000000000000000, -3.491481338843133750E-15 ) ) ;
#175 = CIRCLE ( 'NONE', #237, 0.7000000000000000666 ) ;
#176 = DIRECTION ( 'NONE',  ( -3.491481338843133355E-15, 0.0000000000000000000, -1.000000000000000000 ) ) ;
#177 = PERSON_AND_ORGANIZATION ( #60, #42 ) ;
#178 = DIRECTION ( 'NONE',  ( 1.000000000000000000, 0.0000000000000000000, 0.0000000000000000000 ) ) ;
#179 = LOCAL_TIME ( 7, 59, 41.00000000000000000, #166 ) ;
#180 = CARTESIAN_POINT ( 'NONE',  ( 2.000000000000131450, 0.0000000000000000000, 37.59999999999999432 ) ) ;
#181 = AXIS2_PLACEMENT_3D ( 'NONE', #56, #126, #3 ) ;
#182 = CALENDAR_DATE ( 2021, 9, 11 ) ;
#183 = EDGE_CURVE ( 'NONE', #104, #104, #25, .T. ) ;
#184 = PERSON_AND_ORGANIZATION_ROLE ( 'classification_officer' ) ;
#185 = APPROVAL_DATE_TIME ( #24, #239 ) ;
#186 = DATE_AND_TIME ( #72, #205 ) ;
#187 = EDGE_LOOP ( 'NONE', ( #11 ) ) ;
#188 = PRODUCT_DEFINITION_FORMATION_WITH_SPECIFIED_SOURCE ( 'ANY', '', #219, .NOT_KNOWN. ) ;
#189 = COORDINATED_UNIVERSAL_TIME_OFFSET ( 1, 0, .AHEAD. ) ;
#190 = APPROVAL ( #105, 'UNSPECIFIED' ) ;
#191 = DIRECTION ( 'NONE',  ( 3.491481338843133355E-15, -0.0000000000000000000, 1.000000000000000000 ) ) ;
#192 = DIRECTION ( 'NONE',  ( 3.491481338843133355E-15, -0.0000000000000000000, 1.000000000000000000 ) ) ;
#193 = AXIS2_PLACEMENT_3D ( 'NONE', #230, #78, #225 ) ;
#194 = CARTESIAN_POINT ( 'NONE',  ( 7.332110811570580046E-15, 0.0000000000000000000, 2.100000000000000089 ) ) ;
#195 = DIRECTION ( 'NONE',  ( -3.491481338843133355E-15, 0.0000000000000000000, -1.000000000000000000 ) ) ;
#196 = CYLINDRICAL_SURFACE ( 'NONE', #66, 2.000000000000000000 ) ;
#197 = PRODUCT_RELATED_PRODUCT_CATEGORY ( 'detail', '', ( #219 ) ) ;
#198 = DIRECTION ( 'NONE',  ( 0.0000000000000000000, 0.0000000000000000000, 1.000000000000000000 ) ) ;
#199 = APPROVAL_STATUS ( 'not_yet_approved' ) ;
#200 = PERSON_AND_ORGANIZATION ( #60, #42 ) ;
#201 = CC_DESIGN_PERSON_AND_ORGANIZATION_ASSIGNMENT ( #202, #234, ( #219 ) ) ;
#202 = PERSON_AND_ORGANIZATION ( #60, #42 ) ;
#203 = PERSON_AND_ORGANIZATION ( #60, #42 ) ;
#204 = EDGE_LOOP ( 'NONE', ( #87 ) ) ;
#205 = LOCAL_TIME ( 7, 59, 41.00000000000000000, #189 ) ;
#206 = AXIS2_PLACEMENT_3D ( 'NONE', #194, #114, #83 ) ;
#207 = PERSON_AND_ORGANIZATION_ROLE ( 'design_supplier' ) ;
#208 = ORIENTED_EDGE ( 'NONE', *, *, #139, .T. ) ;
#209 = ORIENTED_EDGE ( 'NONE', *, *, #40, .F. ) ;
#210 = DIRECTION ( 'NONE',  ( -1.000000000000000000, 0.0000000000000000000, 3.491481338843133355E-15 ) ) ;
#211 = CARTESIAN_POINT ( 'NONE',  ( 7.332110811570580046E-15, 0.0000000000000000000, 2.100000000000000089 ) ) ;
#212 = APPROVAL_PERSON_ORGANIZATION ( #157, #127, #27 ) ;
#213 = FACE_BOUND ( 'NONE', #118, .T. ) ;
#214 = AXIS2_PLACEMENT_3D ( 'NONE', #211, #191, #76 ) ;
#215 = CARTESIAN_POINT ( 'NONE',  ( 1.326762908760390423E-13, 0.0000000000000000000, 38.00000000000000000 ) ) ;
#216 = FACE_OUTER_BOUND ( 'NONE', #242, .T. ) ;
#217 = DIRECTION ( 'NONE',  ( 3.491481338843133355E-15, -0.0000000000000000000, 1.000000000000000000 ) ) ;
#218 = ADVANCED_FACE ( 'NONE', ( #79 ), #61, .T. ) ;
#219 = PRODUCT ( '334926', '334926', '', ( #21 ) ) ;
#220 = APPROVAL_STATUS ( 'not_yet_approved' ) ;
#221 = ADVANCED_FACE ( 'NONE', ( #216, #41 ), #196, .T. ) ;
#222 = CARTESIAN_POINT ( 'NONE',  ( 9.139434543795838005E-15, 0.0000000000000000000, 2.617638090205029133 ) ) ;
#223 = UNCERTAINTY_MEASURE_WITH_UNIT (LENGTH_MEASURE( 1.000000000000000082E-05 ), #159, 'distance_accuracy_value', 'NONE');
#224 = DIRECTION ( 'NONE',  ( 3.491481338843133355E-15, -0.0000000000000000000, 1.000000000000000000 ) ) ;
#225 = DIRECTION ( 'NONE',  ( 1.000000000000000000, 0.0000000000000000000, -3.491481338843133355E-15 ) ) ;
#226 = EDGE_CURVE ( 'NONE', #151, #151, #142, .T. ) ;
#227 = DESIGN_CONTEXT ( 'detailed design', #67, 'design' ) ;
#228 = DIRECTION ( 'NONE',  ( -3.491481338843133355E-15, 0.0000000000000000000, -1.000000000000000000 ) ) ;
#229 = PRODUCT_DEFINITION_SHAPE ( 'NONE', 'NONE',  #28 ) ;
#230 = CARTESIAN_POINT ( 'NONE',  ( 1.326762908760390423E-13, 0.0000000000000000000, 38.00000000000000000 ) ) ;
#231 = DIRECTION ( 'NONE',  ( 1.000000000000000000, 0.0000000000000000000, -3.469446951953614189E-15 ) ) ;
#232 = EDGE_CURVE ( 'NONE', #154, #154, #16, .T. ) ;
#233 = CALENDAR_DATE ( 2021, 9, 11 ) ;
#234 = PERSON_AND_ORGANIZATION_ROLE ( 'design_owner' ) ;
#235 = VERTEX_POINT ( 'NONE', #5 ) ;
#236 = CALENDAR_DATE ( 2021, 9, 11 ) ;
#237 = AXIS2_PLACEMENT_3D ( 'NONE', #30, #224, #174 ) ;
#238 = EDGE_LOOP ( 'NONE', ( #89 ) ) ;
#239 = APPROVAL ( #199, 'UNSPECIFIED' ) ;
#240 = CC_DESIGN_APPROVAL ( #127, ( #28 ) ) ;
#241 = TOROIDAL_SURFACE ( 'NONE', #74, 2.700000000000000622, 2.000000000000000000 ) ;
#242 = EDGE_LOOP ( 'NONE', ( #122 ) ) ;
#243 = LOCAL_TIME ( 7, 59, 41.00000000000000000, #117 ) ;
ENDSEC;
END-ISO-10303-21;
