ISO-10303-21;
HEADER;
FILE_DESCRIPTION (( 'STEP AP203' ),
    '1' );
FILE_NAME ('334925.step',
    '2021-11-09T06:59:40',
    ( '' ),
    ( '' ),
    'SwSTEP 2.0',
    'SolidWorks 2019',
    '' );
FILE_SCHEMA (( 'CONFIG_CONTROL_DESIGN' ));
ENDSEC;

DATA;
#1 = EDGE_LOOP ( 'NONE', ( #243 ) ) ;
#2 = MANIFOLD_SOLID_BREP ( 'Corps-Déplacer/Copier1[1]', #205 ) ;
#3 = CALENDAR_DATE ( 2021, 9, 11 ) ;
#4 = PERSON_AND_ORGANIZATION ( #198, #89 ) ;
#5 = DIRECTION ( 'NONE',  ( 3.491481338843133355E-15, -0.0000000000000000000, 1.000000000000000000 ) ) ;
#6 = APPROVAL_ROLE ( '' ) ;
#7 = DIRECTION ( 'NONE',  ( -1.000000000000000000, 0.0000000000000000000, 4.336808689942017736E-15 ) ) ;
#8 = AXIS2_PLACEMENT_3D ( 'NONE', #11, #177, #7 ) ;
#9 = DIRECTION ( 'NONE',  ( 1.000000000000000000, 0.0000000000000000000, -3.469446951953614189E-15 ) ) ;
#10 = CARTESIAN_POINT ( 'NONE',  ( 2.531873385064710775E-14, 0.0000000000000000000, 7.251573585392901755 ) ) ;
#11 = CARTESIAN_POINT ( 'NONE',  ( 1.326762908760390423E-13, 0.0000000000000000000, 38.00000000000000000 ) ) ;
#12 = AXIS2_PLACEMENT_3D ( 'NONE', #197, #110, #86 ) ;
#13 = APPROVAL_ROLE ( '' ) ;
#14 = DATE_TIME_ROLE ( 'creation_date' ) ;
#15 = EDGE_LOOP ( 'NONE', ( #76 ) ) ;
#16 = APPROVAL_ROLE ( '' ) ;
#17 = ORIENTED_EDGE ( 'NONE', *, *, #29, .T. ) ;
#18 = VERTEX_POINT ( 'NONE', #172 ) ;
#19 = ORIENTED_EDGE ( 'NONE', *, *, #182, .T. ) ;
#20 = CARTESIAN_POINT ( 'NONE',  ( 6.808388610744109254E-15, 0.0000000000000000000, 1.949999999999999734 ) ) ;
#21 = PRODUCT_RELATED_PRODUCT_CATEGORY ( 'detail', '', ( #93 ) ) ;
#22 = ORIENTED_EDGE ( 'NONE', *, *, #182, .F. ) ;
#23 = CARTESIAN_POINT ( 'NONE',  ( 6.808388610744109254E-15, 0.0000000000000000000, 1.949999999999999734 ) ) ;
#24 = COORDINATED_UNIVERSAL_TIME_OFFSET ( 1, 0, .AHEAD. ) ;
#25 = DIRECTION ( 'NONE',  ( 3.491481338843133355E-15, -0.0000000000000000000, 1.000000000000000000 ) ) ;
#26 = CC_DESIGN_PERSON_AND_ORGANIZATION_ASSIGNMENT ( #138, #114, ( #118 ) ) ;
#27 = DIRECTION ( 'NONE',  ( 3.491481338843133355E-15, -0.0000000000000000000, 1.000000000000000000 ) ) ;
#28 = CARTESIAN_POINT ( 'NONE',  ( 8.615712342969364846E-15, 0.0000000000000000000, 2.467638090205028778 ) ) ;
#29 = EDGE_CURVE ( 'NONE', #115, #115, #122, .T. ) ;
#30 = DIRECTION ( 'NONE',  ( 3.491481338843133355E-15, -0.0000000000000000000, 1.000000000000000000 ) ) ;
#31 = AXIS2_PLACEMENT_3D ( 'NONE', #220, #62, #44 ) ;
#32 = CC_DESIGN_APPROVAL ( #124, ( #118 ) ) ;
#33 = PERSON_AND_ORGANIZATION ( #198, #89 ) ;
#34 = CALENDAR_DATE ( 2021, 9, 11 ) ;
#35 = EDGE_LOOP ( 'NONE', ( #100 ) ) ;
#36 = APPLICATION_CONTEXT ( 'configuration controlled 3d designs of mechanical parts and assemblies' ) ;
#37 = COORDINATED_UNIVERSAL_TIME_OFFSET ( 1, 0, .AHEAD. ) ;
#38 = ORIENTED_EDGE ( 'NONE', *, *, #74, .T. ) ;
#39 = DESIGN_CONTEXT ( 'detailed design', #121, 'design' ) ;
#40 = EDGE_LOOP ( 'NONE', ( #188 ) ) ;
#41 = DATE_AND_TIME ( #140, #109 ) ;
#42 =( GEOMETRIC_REPRESENTATION_CONTEXT ( 3 ) GLOBAL_UNCERTAINTY_ASSIGNED_CONTEXT ( ( #229 ) ) GLOBAL_UNIT_ASSIGNED_CONTEXT ( ( #157, #70, #206 ) ) REPRESENTATION_CONTEXT ( 'NONE', 'WORKASPACE' ) );
#43 = DIRECTION ( 'NONE',  ( 1.000000000000000000, 0.0000000000000000000, -3.336006684570784876E-15 ) ) ;
#44 = DIRECTION ( 'NONE',  ( -1.000000000000000000, 0.0000000000000000000, 3.491481338843133355E-15 ) ) ;
#45 = ADVANCED_FACE ( 'NONE', ( #235, #175 ), #112, .F. ) ;
#46 = DIRECTION ( 'NONE',  ( 3.491481338843133355E-15, -0.0000000000000000000, 1.000000000000000000 ) ) ;
#47 = CARTESIAN_POINT ( 'NONE',  ( 6.808388610744110043E-15, -2.114194236346732907E-16, 1.949999999999999956 ) ) ;
#48 = LOCAL_TIME ( 7, 59, 40.00000000000000000, #204 ) ;
#49 = PLANE ( 'NONE',  #31 ) ;
#50 = MECHANICAL_CONTEXT ( 'NONE', #36, 'mechanical' ) ;
#51 = CALENDAR_DATE ( 2021, 9, 11 ) ;
#52 = AXIS2_PLACEMENT_3D ( 'NONE', #28, #127, #194 ) ;
#53 = VERTEX_POINT ( 'NONE', #90 ) ;
#54 = PERSON_AND_ORGANIZATION ( #198, #89 ) ;
#55 = EDGE_LOOP ( 'NONE', ( #119 ) ) ;
#56 = DATE_AND_TIME ( #51, #48 ) ;
#57 = APPROVAL_PERSON_ORGANIZATION ( #146, #66, #6 ) ;
#58 = PERSON_AND_ORGANIZATION_ROLE ( 'creator' ) ;
#59 = EDGE_LOOP ( 'NONE', ( #19 ) ) ;
#60 = EDGE_LOOP ( 'NONE', ( #22 ) ) ;
#61 = AXIS2_PLACEMENT_3D ( 'NONE', #195, #67, #180 ) ;
#62 = DIRECTION ( 'NONE',  ( -3.491481338843133355E-15, 0.0000000000000000000, -1.000000000000000000 ) ) ;
#63 = EDGE_CURVE ( 'NONE', #154, #154, #171, .T. ) ;
#64 = CARTESIAN_POINT ( 'NONE',  ( 1.326762908760390423E-13, 0.0000000000000000000, 38.00000000000000000 ) ) ;
#65 = CARTESIAN_POINT ( 'NONE',  ( -9.831781012932406109E-37, 0.0000000000000000000, -2.815934000148506281E-22 ) ) ;
#66 = APPROVAL ( #173, 'UNSPECIFIED' ) ;
#67 = DIRECTION ( 'NONE',  ( 3.491481338843133355E-15, -0.0000000000000000000, 1.000000000000000000 ) ) ;
#68 = PLANE ( 'NONE',  #61 ) ;
#69 = DIRECTION ( 'NONE',  ( 0.0000000000000000000, 0.0000000000000000000, 1.000000000000000000 ) ) ;
#70 =( NAMED_UNIT ( * ) PLANE_ANGLE_UNIT ( ) SI_UNIT ( $, .RADIAN. ) );
#71 = CIRCLE ( 'NONE', #107, 2.000000000000000000 ) ;
#72 = VERTEX_POINT ( 'NONE', #96 ) ;
#73 = EDGE_LOOP ( 'NONE', ( #94 ) ) ;
#74 = EDGE_CURVE ( 'NONE', #18, #18, #71, .T. ) ;
#75 = SECURITY_CLASSIFICATION_LEVEL ( 'unclassified' ) ;
#76 = ORIENTED_EDGE ( 'NONE', *, *, #153, .F. ) ;
#77 = FACE_OUTER_BOUND ( 'NONE', #40, .T. ) ;
#78 = LOCAL_TIME ( 7, 59, 40.00000000000000000, #120 ) ;
#79 = ADVANCED_FACE ( 'NONE', ( #165 ), #68, .T. ) ;
#80 = PLANE ( 'NONE',  #233 ) ;
#81 = CC_DESIGN_APPROVAL ( #66, ( #133 ) ) ;
#82 = DIRECTION ( 'NONE',  ( 1.000000000000000000, 0.0000000000000000000, -3.336006684570784876E-15 ) ) ;
#83 = MANIFOLD_SOLID_BREP ( 'Corps-Déplacer/Copier1[2]', #218 ) ;
#84 = ADVANCED_FACE ( 'NONE', ( #134, #77 ), #151, .T. ) ;
#85 = ADVANCED_BREP_SHAPE_REPRESENTATION ( '334925', ( #2, #83, #193 ), #42 ) ;
#86 = DIRECTION ( 'NONE',  ( 1.000000000000000000, 0.0000000000000000000, -3.469446951953614189E-15 ) ) ;
#87 = PRODUCT_DEFINITION_SHAPE ( 'NONE', 'NONE',  #118 ) ;
#88 = FACE_OUTER_BOUND ( 'NONE', #15, .T. ) ;
#89 = ORGANIZATION ( 'UNSPECIFIED', 'UNSPECIFIED', '' ) ;
#90 = CARTESIAN_POINT ( 'NONE',  ( 0.6500000000000000222, 0.0000000000000000000, -2.269463151841436657E-15 ) ) ;
#91 = DATE_AND_TIME ( #242, #78 ) ;
#92 = CC_DESIGN_PERSON_AND_ORGANIZATION_ASSIGNMENT ( #33, #169, ( #93 ) ) ;
#93 = PRODUCT ( '334925', '334925', '', ( #50 ) ) ;
#94 = ORIENTED_EDGE ( 'NONE', *, *, #63, .T. ) ;
#95 = CIRCLE ( 'NONE', #52, 0.7181483474218599561 ) ;
#96 = CARTESIAN_POINT ( 'NONE',  ( 0.6500000000000063505, 0.0000000000000000000, 1.949999999999997513 ) ) ;
#97 = EDGE_LOOP ( 'NONE', ( #191 ) ) ;
#98 = CC_DESIGN_DATE_AND_TIME_ASSIGNMENT ( #185, #14, ( #118 ) ) ;
#99 = APPROVAL_DATE_TIME ( #56, #124 ) ;
#100 = ORIENTED_EDGE ( 'NONE', *, *, #209, .T. ) ;
#101 = APPROVAL_DATE_TIME ( #91, #167 ) ;
#102 = ORIENTED_EDGE ( 'NONE', *, *, #187, .F. ) ;
#103 = DIRECTION ( 'NONE',  ( 1.000000000000000000, 0.0000000000000000000, -3.491481338843133355E-15 ) ) ;
#104 = DATE_AND_TIME ( #3, #200 ) ;
#105 = FACE_OUTER_BOUND ( 'NONE', #159, .T. ) ;
#106 = APPROVAL_DATE_TIME ( #104, #66 ) ;
#107 = AXIS2_PLACEMENT_3D ( 'NONE', #216, #166, #132 ) ;
#108 = DIRECTION ( 'NONE',  ( 3.491481338843133355E-15, -0.0000000000000000000, 1.000000000000000000 ) ) ;
#109 = LOCAL_TIME ( 7, 59, 40.00000000000000000, #158 ) ;
#110 = DIRECTION ( 'NONE',  ( 3.491481338843133355E-15, -0.0000000000000000000, 1.000000000000000000 ) ) ;
#111 = DIRECTION ( 'NONE',  ( -1.000000000000000000, 0.0000000000000000000, 3.491481338843133355E-15 ) ) ;
#112 = TOROIDAL_SURFACE ( 'NONE', #147, 2.649999999999999911, 2.000000000000000000 ) ;
#113 = AXIS2_PLACEMENT_3D ( 'NONE', #65, #25, #183 ) ;
#114 = PERSON_AND_ORGANIZATION_ROLE ( 'creator' ) ;
#115 = VERTEX_POINT ( 'NONE', #223 ) ;
#116 = ORIENTED_EDGE ( 'NONE', *, *, #74, .F. ) ;
#117 = PERSON_AND_ORGANIZATION ( #198, #89 ) ;
#118 = PRODUCT_DEFINITION ( 'UNKNOWN', '', #179, #39 ) ;
#119 = ORIENTED_EDGE ( 'NONE', *, *, #63, .F. ) ;
#120 = COORDINATED_UNIVERSAL_TIME_OFFSET ( 1, 0, .AHEAD. ) ;
#121 = APPLICATION_CONTEXT ( 'configuration controlled 3d designs of mechanical parts and assemblies' ) ;
#122 = CIRCLE ( 'NONE', #131, 0.6499999999999995781 ) ;
#123 = CIRCLE ( 'NONE', #214, 0.6499999999999995781 ) ;
#124 = APPROVAL ( #208, 'UNSPECIFIED' ) ;
#125 = SHAPE_DEFINITION_REPRESENTATION ( #87, #85 ) ;
#126 = FACE_OUTER_BOUND ( 'NONE', #97, .T. ) ;
#127 = DIRECTION ( 'NONE',  ( 3.491481338843133355E-15, -0.0000000000000000000, 1.000000000000000000 ) ) ;
#128 = PERSON_AND_ORGANIZATION ( #198, #89 ) ;
#129 = CC_DESIGN_DATE_AND_TIME_ASSIGNMENT ( #41, #142, ( #133 ) ) ;
#130 = DIRECTION ( 'NONE',  ( -3.491481338843133355E-15, 0.0000000000000000000, -1.000000000000000000 ) ) ;
#131 = AXIS2_PLACEMENT_3D ( 'NONE', #20, #231, #82 ) ;
#132 = DIRECTION ( 'NONE',  ( 1.000000000000000000, 0.0000000000000000000, -3.469446951953614189E-15 ) ) ;
#133 = SECURITY_CLASSIFICATION ( '', '', #75 ) ;
#134 = FACE_OUTER_BOUND ( 'NONE', #226, .T. ) ;
#135 = VERTEX_POINT ( 'NONE', #186 ) ;
#136 = AXIS2_PLACEMENT_3D ( 'NONE', #145, #181, #111 ) ;
#137 = CARTESIAN_POINT ( 'NONE',  ( 2.000000000000025313, 0.0000000000000000000, 7.251573585392894650 ) ) ;
#138 = PERSON_AND_ORGANIZATION ( #198, #89 ) ;
#139 = CIRCLE ( 'NONE', #113, 0.6500000000000000222 ) ;
#140 = CALENDAR_DATE ( 2021, 9, 11 ) ;
#141 = ADVANCED_FACE ( 'NONE', ( #213 ), #49, .T. ) ;
#142 = DATE_TIME_ROLE ( 'classification_date' ) ;
#143 = EDGE_LOOP ( 'NONE', ( #192 ) ) ;
#144 = CIRCLE ( 'NONE', #199, 2.000000000000000000 ) ;
#145 = CARTESIAN_POINT ( 'NONE',  ( -4.915890506466203054E-37, 0.0000000000000000000, -1.407967000074253141E-22 ) ) ;
#146 = PERSON_AND_ORGANIZATION ( #198, #89 ) ;
#147 = AXIS2_PLACEMENT_3D ( 'NONE', #236, #148, #103 ) ;
#148 = DIRECTION ( 'NONE',  ( 3.491481338843133355E-15, -0.0000000000000000000, 1.000000000000000000 ) ) ;
#149 = CC_DESIGN_PERSON_AND_ORGANIZATION_ASSIGNMENT ( #128, #58, ( #179 ) ) ;
#150 = FACE_BOUND ( 'NONE', #55, .T. ) ;
#151 = CYLINDRICAL_SURFACE ( 'NONE', #239, 2.000000000000000000 ) ;
#152 = VERTEX_POINT ( 'NONE', #137 ) ;
#153 = EDGE_CURVE ( 'NONE', #152, #152, #144, .T. ) ;
#154 = VERTEX_POINT ( 'NONE', #225 ) ;
#155 = CONICAL_SURFACE ( 'NONE', #12, 2.000000000000000000, 0.2617993877991428575 ) ;
#156 = APPLICATION_PROTOCOL_DEFINITION ( 'international standard', 'config_control_design', 1994, #121 ) ;
#157 =( LENGTH_UNIT ( ) NAMED_UNIT ( * ) SI_UNIT ( .MILLI., .METRE. ) );
#158 = COORDINATED_UNIVERSAL_TIME_OFFSET ( 1, 0, .AHEAD. ) ;
#159 = EDGE_LOOP ( 'NONE', ( #38 ) ) ;
#160 = DIRECTION ( 'NONE',  ( 1.000000000000000000, 0.0000000000000000000, -3.491481338843133355E-15 ) ) ;
#161 = APPROVAL_PERSON_ORGANIZATION ( #54, #124, #13 ) ;
#162 = CC_DESIGN_SECURITY_CLASSIFICATION ( #133, ( #179 ) ) ;
#163 = DIRECTION ( 'NONE',  ( -1.000000000000000000, 0.0000000000000000000, 3.491481338843133355E-15 ) ) ;
#164 = CC_DESIGN_PERSON_AND_ORGANIZATION_ASSIGNMENT ( #4, #176, ( #179 ) ) ;
#165 = FACE_OUTER_BOUND ( 'NONE', #73, .T. ) ;
#166 = DIRECTION ( 'NONE',  ( 3.491481338843133355E-15, -0.0000000000000000000, 1.000000000000000000 ) ) ;
#167 = APPROVAL ( #189, 'UNSPECIFIED' ) ;
#168 = FACE_OUTER_BOUND ( 'NONE', #35, .T. ) ;
#169 = PERSON_AND_ORGANIZATION_ROLE ( 'design_owner' ) ;
#170 = APPLICATION_PROTOCOL_DEFINITION ( 'international standard', 'config_control_design', 1994, #36 ) ;
#171 = CIRCLE ( 'NONE', #178, 1.600000000000000089 ) ;
#172 = CARTESIAN_POINT ( 'NONE',  ( 2.000000000000131450, 0.0000000000000000000, 37.59999999999999432 ) ) ;
#173 = APPROVAL_STATUS ( 'not_yet_approved' ) ;
#174 = EDGE_LOOP ( 'NONE', ( #102 ) ) ;
#175 = FACE_OUTER_BOUND ( 'NONE', #60, .T. ) ;
#176 = PERSON_AND_ORGANIZATION_ROLE ( 'design_supplier' ) ;
#177 = DIRECTION ( 'NONE',  ( -3.491481338843133355E-15, 0.0000000000000000000, -1.000000000000000000 ) ) ;
#178 = AXIS2_PLACEMENT_3D ( 'NONE', #64, #5, #201 ) ;
#179 = PRODUCT_DEFINITION_FORMATION_WITH_SPECIFIED_SOURCE ( 'ANY', '', #93, .NOT_KNOWN. ) ;
#180 = DIRECTION ( 'NONE',  ( 1.000000000000000000, 0.0000000000000000000, -3.491481338843133355E-15 ) ) ;
#181 = DIRECTION ( 'NONE',  ( -3.491481338843133355E-15, 0.0000000000000000000, -1.000000000000000000 ) ) ;
#182 = EDGE_CURVE ( 'NONE', #135, #135, #95, .T. ) ;
#183 = DIRECTION ( 'NONE',  ( 1.000000000000000000, 0.0000000000000000000, -3.491481338843133355E-15 ) ) ;
#184 = CARTESIAN_POINT ( 'NONE',  ( 0.0000000000000000000, 0.0000000000000000000, 0.0000000000000000000 ) ) ;
#185 = DATE_AND_TIME ( #34, #219 ) ;
#186 = CARTESIAN_POINT ( 'NONE',  ( 0.7181483474218685048, 0.0000000000000000000, 2.467638090205026113 ) ) ;
#187 = EDGE_CURVE ( 'NONE', #72, #72, #123, .T. ) ;
#188 = ORIENTED_EDGE ( 'NONE', *, *, #153, .T. ) ;
#189 = APPROVAL_STATUS ( 'not_yet_approved' ) ;
#190 = DIRECTION ( 'NONE',  ( 1.000000000000000000, 0.0000000000000000000, 0.0000000000000000000 ) ) ;
#191 = ORIENTED_EDGE ( 'NONE', *, *, #209, .F. ) ;
#192 = ORIENTED_EDGE ( 'NONE', *, *, #29, .F. ) ;
#193 = AXIS2_PLACEMENT_3D ( 'NONE', #184, #69, #190 ) ;
#194 = DIRECTION ( 'NONE',  ( 1.000000000000000000, 0.0000000000000000000, -3.623325491601632651E-15 ) ) ;
#195 = CARTESIAN_POINT ( 'NONE',  ( 1.326762908760390423E-13, 0.0000000000000000000, 38.00000000000000000 ) ) ;
#196 = CONICAL_SURFACE ( 'NONE', #8, 1.600000000000000089, 0.7853981633974512766 ) ;
#197 = CARTESIAN_POINT ( 'NONE',  ( 2.531873385064710775E-14, 0.0000000000000000000, 7.251573585392901755 ) ) ;
#198 = PERSON ( 'UNSPECIFIED', 'UNSPECIFIED', 'UNSPECIFIED', ('UNSPECIFIED'), ('UNSPECIFIED'), ('UNSPECIFIED') ) ;
#199 = AXIS2_PLACEMENT_3D ( 'NONE', #10, #46, #9 ) ;
#200 = LOCAL_TIME ( 7, 59, 40.00000000000000000, #24 ) ;
#201 = DIRECTION ( 'NONE',  ( 1.000000000000000000, 0.0000000000000000000, -4.336808689942017736E-15 ) ) ;
#202 = CC_DESIGN_PERSON_AND_ORGANIZATION_ASSIGNMENT ( #211, #215, ( #133 ) ) ;
#203 = PLANE ( 'NONE',  #136 ) ;
#204 = COORDINATED_UNIVERSAL_TIME_OFFSET ( 1, 0, .AHEAD. ) ;
#205 = CLOSED_SHELL ( 'NONE', ( #84, #217, #79, #45, #230, #141 ) ) ;
#206 =( NAMED_UNIT ( * ) SI_UNIT ( $, .STERADIAN. ) SOLID_ANGLE_UNIT ( ) );
#207 = ADVANCED_FACE ( 'NONE', ( #126 ), #203, .T. ) ;
#208 = APPROVAL_STATUS ( 'not_yet_approved' ) ;
#209 = EDGE_CURVE ( 'NONE', #53, #53, #139, .T. ) ;
#210 = APPROVAL_PERSON_ORGANIZATION ( #117, #167, #16 ) ;
#211 = PERSON_AND_ORGANIZATION ( #198, #89 ) ;
#212 = EDGE_LOOP ( 'NONE', ( #17 ) ) ;
#213 = FACE_OUTER_BOUND ( 'NONE', #174, .T. ) ;
#214 = AXIS2_PLACEMENT_3D ( 'NONE', #23, #27, #43 ) ;
#215 = PERSON_AND_ORGANIZATION_ROLE ( 'classification_officer' ) ;
#216 = CARTESIAN_POINT ( 'NONE',  ( 1.312796983405018142E-13, 0.0000000000000000000, 37.60000000000000142 ) ) ;
#217 = ADVANCED_FACE ( 'NONE', ( #105, #150 ), #196, .T. ) ;
#218 = CLOSED_SHELL ( 'NONE', ( #207, #240, #227 ) ) ;
#219 = LOCAL_TIME ( 7, 59, 40.00000000000000000, #37 ) ;
#220 = CARTESIAN_POINT ( 'NONE',  ( 6.808388610744110043E-15, -2.114194236346732907E-16, 1.949999999999999956 ) ) ;
#221 = FACE_OUTER_BOUND ( 'NONE', #212, .T. ) ;
#222 = CARTESIAN_POINT ( 'NONE',  ( 0.0000000000000000000, 0.0000000000000000000, 0.0000000000000000000 ) ) ;
#223 = CARTESIAN_POINT ( 'NONE',  ( 0.6500000000000063505, 0.0000000000000000000, 1.949999999999997513 ) ) ;
#224 = DIRECTION ( 'NONE',  ( 1.000000000000000000, 0.0000000000000000000, -3.491481338843133355E-15 ) ) ;
#225 = CARTESIAN_POINT ( 'NONE',  ( 1.600000000000132871, 0.0000000000000000000, 37.99999999999999289 ) ) ;
#226 = EDGE_LOOP ( 'NONE', ( #116 ) ) ;
#227 = ADVANCED_FACE ( 'NONE', ( #221 ), #80, .F. ) ;
#228 = AXIS2_PLACEMENT_3D ( 'NONE', #238, #30, #224 ) ;
#229 = UNCERTAINTY_MEASURE_WITH_UNIT (LENGTH_MEASURE( 1.000000000000000082E-05 ), #157, 'distance_accuracy_value', 'NONE');
#230 = ADVANCED_FACE ( 'NONE', ( #234, #88 ), #155, .T. ) ;
#231 = DIRECTION ( 'NONE',  ( 3.491481338843133355E-15, -0.0000000000000000000, 1.000000000000000000 ) ) ;
#232 = CC_DESIGN_APPROVAL ( #167, ( #179 ) ) ;
#233 = AXIS2_PLACEMENT_3D ( 'NONE', #47, #130, #163 ) ;
#234 = FACE_BOUND ( 'NONE', #59, .T. ) ;
#235 = FACE_OUTER_BOUND ( 'NONE', #1, .T. ) ;
#236 = CARTESIAN_POINT ( 'NONE',  ( 6.808388610744110043E-15, 0.0000000000000000000, 1.949999999999999956 ) ) ;
#237 = FACE_OUTER_BOUND ( 'NONE', #143, .T. ) ;
#238 = CARTESIAN_POINT ( 'NONE',  ( 0.0000000000000000000, 0.0000000000000000000, 0.0000000000000000000 ) ) ;
#239 = AXIS2_PLACEMENT_3D ( 'NONE', #222, #108, #160 ) ;
#240 = ADVANCED_FACE ( 'NONE', ( #168, #237 ), #241, .T. ) ;
#241 = CYLINDRICAL_SURFACE ( 'NONE', #228, 0.6499999999999998002 ) ;
#242 = CALENDAR_DATE ( 2021, 9, 11 ) ;
#243 = ORIENTED_EDGE ( 'NONE', *, *, #187, .T. ) ;
ENDSEC;
END-ISO-10303-21;
