ISO-10303-21;
HEADER;
FILE_DESCRIPTION (( 'STEP AP203' ),
    '1' );
FILE_NAME ('334924.step',
    '2021-11-09T06:59:40',
    ( '' ),
    ( '' ),
    'SwSTEP 2.0',
    'SolidWorks 2019',
    '' );
FILE_SCHEMA (( 'CONFIG_CONTROL_DESIGN' ));
ENDSEC;

DATA;
#1 = APPROVAL_DATE_TIME ( #15, #41 ) ;
#2 = APPROVAL_PERSON_ORGANIZATION ( #204, #30, #36 ) ;
#3 = ORIENTED_EDGE ( 'NONE', *, *, #167, .F. ) ;
#4 = FACE_OUTER_BOUND ( 'NONE', #150, .T. ) ;
#5 = DIRECTION ( 'NONE',  ( 1.000000000000000000, 0.0000000000000000000, -3.491481338843133355E-15 ) ) ;
#6 = DIRECTION ( 'NONE',  ( 1.000000000000000000, 0.0000000000000000000, -3.614007241618351532E-15 ) ) ;
#7 = CARTESIAN_POINT ( 'NONE',  ( 1.326762908760390423E-13, 0.0000000000000000000, 38.00000000000000000 ) ) ;
#8 = DIRECTION ( 'NONE',  ( -3.491481338843133355E-15, 0.0000000000000000000, -1.000000000000000000 ) ) ;
#9 = DIRECTION ( 'NONE',  ( 3.491481338843133355E-15, -0.0000000000000000000, 1.000000000000000000 ) ) ;
#10 = DIRECTION ( 'NONE',  ( -1.000000000000000000, 0.0000000000000000000, 4.336808689942017736E-15 ) ) ;
#11 = MANIFOLD_SOLID_BREP ( 'Corps-Déplacer/Copier1[1]', #25 ) ;
#12 = PERSON_AND_ORGANIZATION ( #82, #238 ) ;
#13 = AXIS2_PLACEMENT_3D ( 'NONE', #201, #202, #6 ) ;
#14 = MECHANICAL_CONTEXT ( 'NONE', #123, 'mechanical' ) ;
#15 = DATE_AND_TIME ( #141, #180 ) ;
#16 = CIRCLE ( 'NONE', #214, 0.5999999999999994227 ) ;
#17 = DATE_AND_TIME ( #65, #168 ) ;
#18 = EDGE_LOOP ( 'NONE', ( #43 ) ) ;
#19 = CLOSED_SHELL ( 'NONE', ( #172, #198, #192 ) ) ;
#20 = AXIS2_PLACEMENT_3D ( 'NONE', #233, #215, #76 ) ;
#21 = ORIENTED_EDGE ( 'NONE', *, *, #235, .T. ) ;
#22 = CC_DESIGN_PERSON_AND_ORGANIZATION_ASSIGNMENT ( #96, #221, ( #86 ) ) ;
#23 = DIRECTION ( 'NONE',  ( 1.000000000000000000, 0.0000000000000000000, -3.491481338843133355E-15 ) ) ;
#24 = DIRECTION ( 'NONE',  ( 1.000000000000000000, 0.0000000000000000000, -3.469446951953614189E-15 ) ) ;
#25 = CLOSED_SHELL ( 'NONE', ( #35, #159, #138, #143, #27, #211 ) ) ;
#26 = CARTESIAN_POINT ( 'NONE',  ( 2.544653093733272676E-14, 0.0000000000000000000, 7.288176125771354208 ) ) ;
#27 = ADVANCED_FACE ( 'NONE', ( #129, #209 ), #104, .T. ) ;
#28 = CARTESIAN_POINT ( 'NONE',  ( 6.284666409917640040E-15, -1.951563910473907242E-16, 1.800000000000000044 ) ) ;
#29 = DIRECTION ( 'NONE',  ( -3.491481338843133355E-15, 0.0000000000000000000, -1.000000000000000000 ) ) ;
#30 = APPROVAL ( #85, 'UNSPECIFIED' ) ;
#31 = CARTESIAN_POINT ( 'NONE',  ( 2.000000000000131450, 0.0000000000000000000, 37.59999999999999432 ) ) ;
#32 = DIRECTION ( 'NONE',  ( 0.0000000000000000000, 0.0000000000000000000, 1.000000000000000000 ) ) ;
#33 = PERSON_AND_ORGANIZATION_ROLE ( 'design_owner' ) ;
#34 =( GEOMETRIC_REPRESENTATION_CONTEXT ( 3 ) GLOBAL_UNCERTAINTY_ASSIGNED_CONTEXT ( ( #83 ) ) GLOBAL_UNIT_ASSIGNED_CONTEXT ( ( #212, #218, #116 ) ) REPRESENTATION_CONTEXT ( 'NONE', 'WORKASPACE' ) );
#35 = ADVANCED_FACE ( 'NONE', ( #90, #4 ), #227, .T. ) ;
#36 = APPROVAL_ROLE ( '' ) ;
#37 = PERSON_AND_ORGANIZATION ( #82, #238 ) ;
#38 = CIRCLE ( 'NONE', #118, 0.5999999999999998668 ) ;
#39 = ORIENTED_EDGE ( 'NONE', *, *, #100, .F. ) ;
#40 = EDGE_LOOP ( 'NONE', ( #21 ) ) ;
#41 = APPROVAL ( #184, 'UNSPECIFIED' ) ;
#42 = PRODUCT_DEFINITION_FORMATION_WITH_SPECIFIED_SOURCE ( 'ANY', '', #200, .NOT_KNOWN. ) ;
#43 = ORIENTED_EDGE ( 'NONE', *, *, #205, .F. ) ;
#44 = EDGE_LOOP ( 'NONE', ( #171 ) ) ;
#45 = CIRCLE ( 'NONE', #105, 0.6681483474218594676 ) ;
#46 = DIRECTION ( 'NONE',  ( 3.491481338843133355E-15, -0.0000000000000000000, 1.000000000000000000 ) ) ;
#47 = SECURITY_CLASSIFICATION_LEVEL ( 'unclassified' ) ;
#48 = APPROVAL_ROLE ( '' ) ;
#49 = CIRCLE ( 'NONE', #94, 2.000000000000000000 ) ;
#50 = CC_DESIGN_APPROVAL ( #170, ( #86 ) ) ;
#51 = CARTESIAN_POINT ( 'NONE',  ( 0.0000000000000000000, 0.0000000000000000000, 0.0000000000000000000 ) ) ;
#52 = DATE_AND_TIME ( #185, #142 ) ;
#53 = CALENDAR_DATE ( 2021, 9, 11 ) ;
#54 = EDGE_LOOP ( 'NONE', ( #228 ) ) ;
#55 = DIRECTION ( 'NONE',  ( 3.491481338843133355E-15, -0.0000000000000000000, 1.000000000000000000 ) ) ;
#56 = DIRECTION ( 'NONE',  ( 1.000000000000000000, 0.0000000000000000000, -4.336808689942017736E-15 ) ) ;
#57 = CARTESIAN_POINT ( 'NONE',  ( 1.312796983405018142E-13, 0.0000000000000000000, 37.60000000000000142 ) ) ;
#58 = DIRECTION ( 'NONE',  ( 3.491481338843133355E-15, -0.0000000000000000000, 1.000000000000000000 ) ) ;
#59 = CARTESIAN_POINT ( 'NONE',  ( 8.091990142142896420E-15, 0.0000000000000000000, 2.317638090205028867 ) ) ;
#60 = FACE_OUTER_BOUND ( 'NONE', #128, .T. ) ;
#61 = CARTESIAN_POINT ( 'NONE',  ( 6.284666409917640040E-15, -1.951563910473907242E-16, 1.800000000000000044 ) ) ;
#62 = EDGE_CURVE ( 'NONE', #79, #79, #243, .T. ) ;
#63 = VERTEX_POINT ( 'NONE', #216 ) ;
#64 = AXIS2_PLACEMENT_3D ( 'NONE', #115, #46, #199 ) ;
#65 = CALENDAR_DATE ( 2021, 9, 11 ) ;
#66 = COORDINATED_UNIVERSAL_TIME_OFFSET ( 1, 0, .AHEAD. ) ;
#67 = SHAPE_DEFINITION_REPRESENTATION ( #84, #230 ) ;
#68 = PERSON_AND_ORGANIZATION_ROLE ( 'classification_officer' ) ;
#69 = AXIS2_PLACEMENT_3D ( 'NONE', #132, #89, #5 ) ;
#70 = AXIS2_PLACEMENT_3D ( 'NONE', #61, #8, #114 ) ;
#71 = EDGE_LOOP ( 'NONE', ( #111 ) ) ;
#72 = CARTESIAN_POINT ( 'NONE',  ( 0.0000000000000000000, 0.0000000000000000000, 0.0000000000000000000 ) ) ;
#73 = FACE_OUTER_BOUND ( 'NONE', #40, .T. ) ;
#74 = AXIS2_PLACEMENT_3D ( 'NONE', #133, #127, #173 ) ;
#75 = ORIENTED_EDGE ( 'NONE', *, *, #103, .T. ) ;
#76 = DIRECTION ( 'NONE',  ( -1.000000000000000000, 0.0000000000000000000, 3.491481338843133355E-15 ) ) ;
#77 = FACE_OUTER_BOUND ( 'NONE', #194, .T. ) ;
#78 = AXIS2_PLACEMENT_3D ( 'NONE', #91, #9, #236 ) ;
#79 = VERTEX_POINT ( 'NONE', #81 ) ;
#80 = PLANE ( 'NONE',  #70 ) ;
#81 = CARTESIAN_POINT ( 'NONE',  ( 2.000000000000025757, 0.0000000000000000000, 7.288176125771347102 ) ) ;
#82 = PERSON ( 'UNSPECIFIED', 'UNSPECIFIED', 'UNSPECIFIED', ('UNSPECIFIED'), ('UNSPECIFIED'), ('UNSPECIFIED') ) ;
#83 = UNCERTAINTY_MEASURE_WITH_UNIT (LENGTH_MEASURE( 1.000000000000000082E-05 ), #212, 'distance_accuracy_value', 'NONE');
#84 = PRODUCT_DEFINITION_SHAPE ( 'NONE', 'NONE',  #86 ) ;
#85 = APPROVAL_STATUS ( 'not_yet_approved' ) ;
#86 = PRODUCT_DEFINITION ( 'UNKNOWN', '', #42, #241 ) ;
#87 = CALENDAR_DATE ( 2021, 9, 11 ) ;
#88 = ORIENTED_EDGE ( 'NONE', *, *, #121, .T. ) ;
#89 = DIRECTION ( 'NONE',  ( 3.491481338843133355E-15, -0.0000000000000000000, 1.000000000000000000 ) ) ;
#90 = FACE_OUTER_BOUND ( 'NONE', #71, .T. ) ;
#91 = CARTESIAN_POINT ( 'NONE',  ( 0.0000000000000000000, 0.0000000000000000000, 0.0000000000000000000 ) ) ;
#92 = VERTEX_POINT ( 'NONE', #31 ) ;
#93 = DIRECTION ( 'NONE',  ( -3.491481338843133355E-15, 0.0000000000000000000, -1.000000000000000000 ) ) ;
#94 = AXIS2_PLACEMENT_3D ( 'NONE', #57, #208, #110 ) ;
#95 = PLANE ( 'NONE',  #155 ) ;
#96 = PERSON_AND_ORGANIZATION ( #82, #238 ) ;
#97 = TOROIDAL_SURFACE ( 'NONE', #64, 2.599999999999999645, 2.000000000000000000 ) ;
#98 = APPROVAL_ROLE ( '' ) ;
#99 = APPROVAL_PERSON_ORGANIZATION ( #122, #170, #48 ) ;
#100 = EDGE_CURVE ( 'NONE', #229, #229, #38, .T. ) ;
#101 = COORDINATED_UNIVERSAL_TIME_OFFSET ( 1, 0, .AHEAD. ) ;
#102 = PERSON_AND_ORGANIZATION_ROLE ( 'design_supplier' ) ;
#103 = EDGE_CURVE ( 'NONE', #160, #160, #154, .T. ) ;
#104 = CONICAL_SURFACE ( 'NONE', #237, 2.000000000000000000, 0.2617993877991428020 ) ;
#105 = AXIS2_PLACEMENT_3D ( 'NONE', #59, #135, #182 ) ;
#106 = DIRECTION ( 'NONE',  ( 1.000000000000000000, 0.0000000000000000000, -3.491481338843132961E-15 ) ) ;
#107 = EDGE_LOOP ( 'NONE', ( #189 ) ) ;
#108 = CONICAL_SURFACE ( 'NONE', #130, 1.600000000000000089, 0.7853981633974512766 ) ;
#109 = FACE_OUTER_BOUND ( 'NONE', #207, .T. ) ;
#110 = DIRECTION ( 'NONE',  ( 1.000000000000000000, 0.0000000000000000000, -3.469446951953614189E-15 ) ) ;
#111 = ORIENTED_EDGE ( 'NONE', *, *, #121, .F. ) ;
#112 = CC_DESIGN_DATE_AND_TIME_ASSIGNMENT ( #186, #165, ( #175 ) ) ;
#113 = FACE_BOUND ( 'NONE', #166, .T. ) ;
#114 = DIRECTION ( 'NONE',  ( -1.000000000000000000, 0.0000000000000000000, 3.491481338843133355E-15 ) ) ;
#115 = CARTESIAN_POINT ( 'NONE',  ( 6.284666409917640040E-15, 0.0000000000000000000, 1.800000000000000044 ) ) ;
#116 =( NAMED_UNIT ( * ) SI_UNIT ( $, .STERADIAN. ) SOLID_ANGLE_UNIT ( ) );
#117 = CC_DESIGN_PERSON_AND_ORGANIZATION_ASSIGNMENT ( #12, #33, ( #200 ) ) ;
#118 = AXIS2_PLACEMENT_3D ( 'NONE', #206, #55, #106 ) ;
#119 = COORDINATED_UNIVERSAL_TIME_OFFSET ( 1, 0, .AHEAD. ) ;
#120 = APPLICATION_PROTOCOL_DEFINITION ( 'international standard', 'config_control_design', 1994, #123 ) ;
#121 = EDGE_CURVE ( 'NONE', #92, #92, #49, .T. ) ;
#122 = PERSON_AND_ORGANIZATION ( #82, #238 ) ;
#123 = APPLICATION_CONTEXT ( 'configuration controlled 3d designs of mechanical parts and assemblies' ) ;
#124 = APPROVAL_DATE_TIME ( #144, #30 ) ;
#125 = CIRCLE ( 'NONE', #13, 0.5999999999999994227 ) ;
#126 = CC_DESIGN_PERSON_AND_ORGANIZATION_ASSIGNMENT ( #37, #68, ( #175 ) ) ;
#127 = DIRECTION ( 'NONE',  ( 3.491481338843133355E-15, -0.0000000000000000000, 1.000000000000000000 ) ) ;
#128 = EDGE_LOOP ( 'NONE', ( #3 ) ) ;
#129 = FACE_BOUND ( 'NONE', #210, .T. ) ;
#130 = AXIS2_PLACEMENT_3D ( 'NONE', #7, #29, #10 ) ;
#131 = LOCAL_TIME ( 7, 59, 40.00000000000000000, #66 ) ;
#132 = CARTESIAN_POINT ( 'NONE',  ( 1.326762908760390423E-13, 0.0000000000000000000, 38.00000000000000000 ) ) ;
#133 = CARTESIAN_POINT ( 'NONE',  ( 2.544653093733272676E-14, 0.0000000000000000000, 7.288176125771354208 ) ) ;
#134 = CARTESIAN_POINT ( 'NONE',  ( 0.6000000000000056399, 0.0000000000000000000, 1.799999999999997602 ) ) ;
#135 = DIRECTION ( 'NONE',  ( 3.491481338843133355E-15, -0.0000000000000000000, 1.000000000000000000 ) ) ;
#136 = FACE_OUTER_BOUND ( 'NONE', #44, .T. ) ;
#137 = VERTEX_POINT ( 'NONE', #217 ) ;
#138 = ADVANCED_FACE ( 'NONE', ( #109 ), #193, .T. ) ;
#139 = DIRECTION ( 'NONE',  ( 1.000000000000000000, 0.0000000000000000000, -3.614007241618351532E-15 ) ) ;
#140 = PERSON_AND_ORGANIZATION ( #82, #238 ) ;
#141 = CALENDAR_DATE ( 2021, 9, 11 ) ;
#142 = LOCAL_TIME ( 7, 59, 40.00000000000000000, #101 ) ;
#143 = ADVANCED_FACE ( 'NONE', ( #73, #183 ), #97, .F. ) ;
#144 = DATE_AND_TIME ( #87, #131 ) ;
#145 = CC_DESIGN_APPROVAL ( #41, ( #175 ) ) ;
#146 = ORIENTED_EDGE ( 'NONE', *, *, #205, .T. ) ;
#147 = APPLICATION_CONTEXT ( 'configuration controlled 3d designs of mechanical parts and assemblies' ) ;
#148 = CARTESIAN_POINT ( 'NONE',  ( 1.326762908760390423E-13, 0.0000000000000000000, 38.00000000000000000 ) ) ;
#149 = DIRECTION ( 'NONE',  ( 3.491481338843133355E-15, -0.0000000000000000000, 1.000000000000000000 ) ) ;
#150 = EDGE_LOOP ( 'NONE', ( #224 ) ) ;
#151 = ORIENTED_EDGE ( 'NONE', *, *, #62, .F. ) ;
#152 = DIRECTION ( 'NONE',  ( 3.491481338843133355E-15, -0.0000000000000000000, 1.000000000000000000 ) ) ;
#153 = FACE_OUTER_BOUND ( 'NONE', #195, .T. ) ;
#154 = CIRCLE ( 'NONE', #174, 1.600000000000000089 ) ;
#155 = AXIS2_PLACEMENT_3D ( 'NONE', #28, #93, #179 ) ;
#156 = CARTESIAN_POINT ( 'NONE',  ( 0.5999999999999998668, 0.0000000000000000000, -2.094889084899279200E-15 ) ) ;
#157 = CARTESIAN_POINT ( 'NONE',  ( 6.284666409917639251E-15, 0.0000000000000000000, 1.799999999999999822 ) ) ;
#158 = PRODUCT_RELATED_PRODUCT_CATEGORY ( 'detail', '', ( #200 ) ) ;
#159 = ADVANCED_FACE ( 'NONE', ( #153, #113 ), #108, .T. ) ;
#160 = VERTEX_POINT ( 'NONE', #234 ) ;
#161 = DATE_TIME_ROLE ( 'creation_date' ) ;
#162 = CC_DESIGN_PERSON_AND_ORGANIZATION_ASSIGNMENT ( #222, #102, ( #42 ) ) ;
#163 = APPROVAL_DATE_TIME ( #52, #170 ) ;
#164 = MANIFOLD_SOLID_BREP ( 'Corps-Déplacer/Copier1[2]', #19 ) ;
#165 = DATE_TIME_ROLE ( 'classification_date' ) ;
#166 = EDGE_LOOP ( 'NONE', ( #191 ) ) ;
#167 = EDGE_CURVE ( 'NONE', #177, #177, #125, .T. ) ;
#168 = LOCAL_TIME ( 7, 59, 40.00000000000000000, #239 ) ;
#169 = EDGE_LOOP ( 'NONE', ( #151 ) ) ;
#170 = APPROVAL ( #240, 'UNSPECIFIED' ) ;
#171 = ORIENTED_EDGE ( 'NONE', *, *, #235, .F. ) ;
#172 = ADVANCED_FACE ( 'NONE', ( #77 ), #231, .T. ) ;
#173 = DIRECTION ( 'NONE',  ( 1.000000000000000000, 0.0000000000000000000, -3.469446951953614189E-15 ) ) ;
#174 = AXIS2_PLACEMENT_3D ( 'NONE', #148, #225, #56 ) ;
#175 = SECURITY_CLASSIFICATION ( '', '', #47 ) ;
#176 = CC_DESIGN_PERSON_AND_ORGANIZATION_ASSIGNMENT ( #140, #219, ( #42 ) ) ;
#177 = VERTEX_POINT ( 'NONE', #134 ) ;
#178 = FACE_OUTER_BOUND ( 'NONE', #107, .T. ) ;
#179 = DIRECTION ( 'NONE',  ( -1.000000000000000000, 0.0000000000000000000, 3.491481338843133355E-15 ) ) ;
#180 = LOCAL_TIME ( 7, 59, 40.00000000000000000, #119 ) ;
#181 = CC_DESIGN_DATE_AND_TIME_ASSIGNMENT ( #17, #161, ( #86 ) ) ;
#182 = DIRECTION ( 'NONE',  ( 1.000000000000000000, 0.0000000000000000000, -3.245393561681458416E-15 ) ) ;
#183 = FACE_OUTER_BOUND ( 'NONE', #18, .T. ) ;
#184 = APPROVAL_STATUS ( 'not_yet_approved' ) ;
#185 = CALENDAR_DATE ( 2021, 9, 11 ) ;
#186 = DATE_AND_TIME ( #53, #190 ) ;
#187 = PERSON_AND_ORGANIZATION ( #82, #238 ) ;
#188 = APPLICATION_PROTOCOL_DEFINITION ( 'international standard', 'config_control_design', 1994, #147 ) ;
#189 = ORIENTED_EDGE ( 'NONE', *, *, #167, .T. ) ;
#190 = LOCAL_TIME ( 7, 59, 40.00000000000000000, #220 ) ;
#191 = ORIENTED_EDGE ( 'NONE', *, *, #103, .F. ) ;
#192 = ADVANCED_FACE ( 'NONE', ( #178 ), #80, .F. ) ;
#193 = PLANE ( 'NONE',  #69 ) ;
#194 = EDGE_LOOP ( 'NONE', ( #39 ) ) ;
#195 = EDGE_LOOP ( 'NONE', ( #88 ) ) ;
#196 = FACE_OUTER_BOUND ( 'NONE', #54, .T. ) ;
#197 = CYLINDRICAL_SURFACE ( 'NONE', #78, 0.5999999999999996447 ) ;
#198 = ADVANCED_FACE ( 'NONE', ( #196, #60 ), #197, .T. ) ;
#199 = DIRECTION ( 'NONE',  ( 1.000000000000000000, 0.0000000000000000000, -3.491481338843132961E-15 ) ) ;
#200 = PRODUCT ( '334924', '334924', '', ( #14 ) ) ;
#201 = CARTESIAN_POINT ( 'NONE',  ( 6.284666409917639251E-15, 0.0000000000000000000, 1.799999999999999822 ) ) ;
#202 = DIRECTION ( 'NONE',  ( 3.491481338843133355E-15, -0.0000000000000000000, 1.000000000000000000 ) ) ;
#203 = CC_DESIGN_APPROVAL ( #30, ( #42 ) ) ;
#204 = PERSON_AND_ORGANIZATION ( #82, #238 ) ;
#205 = EDGE_CURVE ( 'NONE', #63, #63, #45, .T. ) ;
#206 = CARTESIAN_POINT ( 'NONE',  ( -9.831781012932406109E-37, 0.0000000000000000000, -2.815934000148506281E-22 ) ) ;
#207 = EDGE_LOOP ( 'NONE', ( #75 ) ) ;
#208 = DIRECTION ( 'NONE',  ( 3.491481338843133355E-15, -0.0000000000000000000, 1.000000000000000000 ) ) ;
#209 = FACE_OUTER_BOUND ( 'NONE', #169, .T. ) ;
#210 = EDGE_LOOP ( 'NONE', ( #146 ) ) ;
#211 = ADVANCED_FACE ( 'NONE', ( #136 ), #95, .T. ) ;
#212 =( LENGTH_UNIT ( ) NAMED_UNIT ( * ) SI_UNIT ( .MILLI., .METRE. ) );
#213 = AXIS2_PLACEMENT_3D ( 'NONE', #72, #149, #23 ) ;
#214 = AXIS2_PLACEMENT_3D ( 'NONE', #157, #152, #139 ) ;
#215 = DIRECTION ( 'NONE',  ( -3.491481338843133355E-15, 0.0000000000000000000, -1.000000000000000000 ) ) ;
#216 = CARTESIAN_POINT ( 'NONE',  ( 0.6681483474218675722, 0.0000000000000000000, 2.317638090205026646 ) ) ;
#217 = CARTESIAN_POINT ( 'NONE',  ( 0.6000000000000056399, 0.0000000000000000000, 1.799999999999997602 ) ) ;
#218 =( NAMED_UNIT ( * ) PLANE_ANGLE_UNIT ( ) SI_UNIT ( $, .RADIAN. ) );
#219 = PERSON_AND_ORGANIZATION_ROLE ( 'creator' ) ;
#220 = COORDINATED_UNIVERSAL_TIME_OFFSET ( 1, 0, .AHEAD. ) ;
#221 = PERSON_AND_ORGANIZATION_ROLE ( 'creator' ) ;
#222 = PERSON_AND_ORGANIZATION ( #82, #238 ) ;
#223 = AXIS2_PLACEMENT_3D ( 'NONE', #51, #32, #242 ) ;
#224 = ORIENTED_EDGE ( 'NONE', *, *, #62, .T. ) ;
#225 = DIRECTION ( 'NONE',  ( 3.491481338843133355E-15, -0.0000000000000000000, 1.000000000000000000 ) ) ;
#226 = APPROVAL_PERSON_ORGANIZATION ( #187, #41, #98 ) ;
#227 = CYLINDRICAL_SURFACE ( 'NONE', #213, 2.000000000000000000 ) ;
#228 = ORIENTED_EDGE ( 'NONE', *, *, #100, .T. ) ;
#229 = VERTEX_POINT ( 'NONE', #156 ) ;
#230 = ADVANCED_BREP_SHAPE_REPRESENTATION ( '334924', ( #11, #164, #223 ), #34 ) ;
#231 = PLANE ( 'NONE',  #20 ) ;
#232 = CC_DESIGN_SECURITY_CLASSIFICATION ( #175, ( #42 ) ) ;
#233 = CARTESIAN_POINT ( 'NONE',  ( -4.915890506466203054E-37, 0.0000000000000000000, -1.407967000074253141E-22 ) ) ;
#234 = CARTESIAN_POINT ( 'NONE',  ( 1.600000000000132871, 0.0000000000000000000, 37.99999999999999289 ) ) ;
#235 = EDGE_CURVE ( 'NONE', #137, #137, #16, .T. ) ;
#236 = DIRECTION ( 'NONE',  ( 1.000000000000000000, 0.0000000000000000000, -3.491481338843132961E-15 ) ) ;
#237 = AXIS2_PLACEMENT_3D ( 'NONE', #26, #58, #24 ) ;
#238 = ORGANIZATION ( 'UNSPECIFIED', 'UNSPECIFIED', '' ) ;
#239 = COORDINATED_UNIVERSAL_TIME_OFFSET ( 1, 0, .AHEAD. ) ;
#240 = APPROVAL_STATUS ( 'not_yet_approved' ) ;
#241 = DESIGN_CONTEXT ( 'detailed design', #147, 'design' ) ;
#242 = DIRECTION ( 'NONE',  ( 1.000000000000000000, 0.0000000000000000000, 0.0000000000000000000 ) ) ;
#243 = CIRCLE ( 'NONE', #74, 2.000000000000000000 ) ;
ENDSEC;
END-ISO-10303-21;
