ISO-10303-21;
HEADER;
FILE_DESCRIPTION (( 'STEP AP203' ),
    '1' );
FILE_NAME ('334923.step',
    '2021-11-09T06:59:39',
    ( '' ),
    ( '' ),
    'SwSTEP 2.0',
    'SolidWorks 2019',
    '' );
FILE_SCHEMA (( 'CONFIG_CONTROL_DESIGN' ));
ENDSEC;

DATA;
#1 = FACE_OUTER_BOUND ( 'NONE', #183, .T. ) ;
#2 = CARTESIAN_POINT ( 'NONE',  ( 5.760944209091170036E-15, -1.788933584601082070E-16, 1.649999999999999911 ) ) ;
#3 = CARTESIAN_POINT ( 'NONE',  ( 2.000000000000025757, 0.0000000000000000000, 7.324778666149794226 ) ) ;
#4 = CIRCLE ( 'NONE', #127, 0.6181483474218597562 ) ;
#5 = APPLICATION_PROTOCOL_DEFINITION ( 'international standard', 'config_control_design', 1994, #82 ) ;
#6 = VERTEX_POINT ( 'NONE', #213 ) ;
#7 = APPROVAL_ROLE ( '' ) ;
#8 = AXIS2_PLACEMENT_3D ( 'NONE', #17, #151, #166 ) ;
#9 = PERSON_AND_ORGANIZATION_ROLE ( 'creator' ) ;
#10 = PERSON ( 'UNSPECIFIED', 'UNSPECIFIED', 'UNSPECIFIED', ('UNSPECIFIED'), ('UNSPECIFIED'), ('UNSPECIFIED') ) ;
#11 = ADVANCED_FACE ( 'NONE', ( #29, #142 ), #189, .T. ) ;
#12 = CALENDAR_DATE ( 2021, 9, 11 ) ;
#13 = EDGE_LOOP ( 'NONE', ( #200 ) ) ;
#14 = CLOSED_SHELL ( 'NONE', ( #101, #11, #165 ) ) ;
#15 = LOCAL_TIME ( 7, 59, 39.00000000000000000, #39 ) ;
#16 = FACE_OUTER_BOUND ( 'NONE', #238, .T. ) ;
#17 = CARTESIAN_POINT ( 'NONE',  ( 1.326762908760390423E-13, 0.0000000000000000000, 38.00000000000000000 ) ) ;
#18 = EDGE_CURVE ( 'NONE', #6, #6, #152, .T. ) ;
#19 = DIRECTION ( 'NONE',  ( 1.000000000000000000, 0.0000000000000000000, -3.491481338843133750E-15 ) ) ;
#20 = CIRCLE ( 'NONE', #8, 1.600000000000000089 ) ;
#21 = CARTESIAN_POINT ( 'NONE',  ( 5.760944209091170036E-15, -1.788933584601082070E-16, 1.649999999999999911 ) ) ;
#22 = DIRECTION ( 'NONE',  ( -3.491481338843133355E-15, 0.0000000000000000000, -1.000000000000000000 ) ) ;
#23 = CC_DESIGN_PERSON_AND_ORGANIZATION_ASSIGNMENT ( #215, #201, ( #25 ) ) ;
#24 = DIRECTION ( 'NONE',  ( 0.0000000000000000000, 0.0000000000000000000, 1.000000000000000000 ) ) ;
#25 = SECURITY_CLASSIFICATION ( '', '', #124 ) ;
#26 = EDGE_LOOP ( 'NONE', ( #162 ) ) ;
#27 = EDGE_CURVE ( 'NONE', #37, #37, #4, .T. ) ;
#28 = PERSON_AND_ORGANIZATION ( #10, #122 ) ;
#29 = FACE_OUTER_BOUND ( 'NONE', #182, .T. ) ;
#30 = PLANE ( 'NONE',  #187 ) ;
#31 = DIRECTION ( 'NONE',  ( 1.000000000000000000, 0.0000000000000000000, -3.548298019043467945E-15 ) ) ;
#32 = CARTESIAN_POINT ( 'NONE',  ( 0.0000000000000000000, 0.0000000000000000000, 0.0000000000000000000 ) ) ;
#33 = CARTESIAN_POINT ( 'NONE',  ( 2.557432802401832683E-14, 0.0000000000000000000, 7.324778666149800443 ) ) ;
#34 = APPROVAL_PERSON_ORGANIZATION ( #217, #164, #43 ) ;
#35 = CARTESIAN_POINT ( 'NONE',  ( 2.557432802401832683E-14, 0.0000000000000000000, 7.324778666149800443 ) ) ;
#36 = AXIS2_PLACEMENT_3D ( 'NONE', #153, #112, #135 ) ;
#37 = VERTEX_POINT ( 'NONE', #53 ) ;
#38 = VERTEX_POINT ( 'NONE', #3 ) ;
#39 = COORDINATED_UNIVERSAL_TIME_OFFSET ( 1, 0, .AHEAD. ) ;
#40 = AXIS2_PLACEMENT_3D ( 'NONE', #32, #207, #219 ) ;
#41 = CALENDAR_DATE ( 2021, 9, 11 ) ;
#42 = COORDINATED_UNIVERSAL_TIME_OFFSET ( 1, 0, .AHEAD. ) ;
#43 = APPROVAL_ROLE ( '' ) ;
#44 = EDGE_LOOP ( 'NONE', ( #125 ) ) ;
#45 = ORIENTED_EDGE ( 'NONE', *, *, #27, .F. ) ;
#46 = DIRECTION ( 'NONE',  ( 3.491481338843133355E-15, -0.0000000000000000000, 1.000000000000000000 ) ) ;
#47 = FACE_OUTER_BOUND ( 'NONE', #104, .T. ) ;
#48 = FACE_BOUND ( 'NONE', #26, .T. ) ;
#49 = CARTESIAN_POINT ( 'NONE',  ( 0.0000000000000000000, 0.0000000000000000000, 0.0000000000000000000 ) ) ;
#50 = CARTESIAN_POINT ( 'NONE',  ( 5.760944209091170036E-15, 0.0000000000000000000, 1.649999999999999911 ) ) ;
#51 = PERSON_AND_ORGANIZATION_ROLE ( 'design_owner' ) ;
#52 = EDGE_CURVE ( 'NONE', #170, #170, #167, .T. ) ;
#53 = CARTESIAN_POINT ( 'NONE',  ( 0.6181483474218673058, 0.0000000000000000000, 2.167638090205026735 ) ) ;
#54 = AXIS2_PLACEMENT_3D ( 'NONE', #21, #220, #94 ) ;
#55 = LOCAL_TIME ( 7, 59, 39.00000000000000000, #42 ) ;
#56 = DATE_AND_TIME ( #97, #80 ) ;
#57 = APPROVAL_STATUS ( 'not_yet_approved' ) ;
#58 = ORIENTED_EDGE ( 'NONE', *, *, #174, .T. ) ;
#59 = AXIS2_PLACEMENT_3D ( 'NONE', #2, #22, #242 ) ;
#60 = CC_DESIGN_SECURITY_CLASSIFICATION ( #25, ( #105 ) ) ;
#61 = DATE_AND_TIME ( #41, #55 ) ;
#62 = ORIENTED_EDGE ( 'NONE', *, *, #218, .F. ) ;
#63 = CC_DESIGN_PERSON_AND_ORGANIZATION_ASSIGNMENT ( #137, #51, ( #113 ) ) ;
#64 =( GEOMETRIC_REPRESENTATION_CONTEXT ( 3 ) GLOBAL_UNCERTAINTY_ASSIGNED_CONTEXT ( ( #99 ) ) GLOBAL_UNIT_ASSIGNED_CONTEXT ( ( #154, #192, #172 ) ) REPRESENTATION_CONTEXT ( 'NONE', 'WORKASPACE' ) );
#65 = ORIENTED_EDGE ( 'NONE', *, *, #52, .F. ) ;
#66 = DIRECTION ( 'NONE',  ( 3.491481338843133355E-15, -0.0000000000000000000, 1.000000000000000000 ) ) ;
#67 = DIRECTION ( 'NONE',  ( 1.000000000000000000, 0.0000000000000000000, -3.469446951953614189E-15 ) ) ;
#68 = DIRECTION ( 'NONE',  ( -3.491481338843133355E-15, 0.0000000000000000000, -1.000000000000000000 ) ) ;
#69 = CARTESIAN_POINT ( 'NONE',  ( 5.760944209091169247E-15, 0.0000000000000000000, 1.649999999999999689 ) ) ;
#70 = FACE_OUTER_BOUND ( 'NONE', #44, .T. ) ;
#71 = PRODUCT_DEFINITION_SHAPE ( 'NONE', 'NONE',  #161 ) ;
#72 = COORDINATED_UNIVERSAL_TIME_OFFSET ( 1, 0, .AHEAD. ) ;
#73 = CONICAL_SURFACE ( 'NONE', #141, 2.000000000000000000, 0.2617993877991428575 ) ;
#74 = APPROVAL_PERSON_ORGANIZATION ( #214, #206, #140 ) ;
#75 = MANIFOLD_SOLID_BREP ( 'Corps-Déplacer/Copier1[1]', #131 ) ;
#76 = MECHANICAL_CONTEXT ( 'NONE', #82, 'mechanical' ) ;
#77 = MANIFOLD_SOLID_BREP ( 'Corps-Déplacer/Copier1[2]', #14 ) ;
#78 = CARTESIAN_POINT ( 'NONE',  ( 1.600000000000132871, 0.0000000000000000000, 37.99999999999999289 ) ) ;
#79 = TOROIDAL_SURFACE ( 'NONE', #121, 2.549999999999999822, 2.000000000000000000 ) ;
#80 = LOCAL_TIME ( 7, 59, 39.00000000000000000, #72 ) ;
#81 = COORDINATED_UNIVERSAL_TIME_OFFSET ( 1, 0, .AHEAD. ) ;
#82 = APPLICATION_CONTEXT ( 'configuration controlled 3d designs of mechanical parts and assemblies' ) ;
#83 = APPROVAL_DATE_TIME ( #233, #164 ) ;
#84 = AXIS2_PLACEMENT_3D ( 'NONE', #226, #24, #116 ) ;
#85 = ORIENTED_EDGE ( 'NONE', *, *, #174, .F. ) ;
#86 = EDGE_LOOP ( 'NONE', ( #178 ) ) ;
#87 = CIRCLE ( 'NONE', #115, 0.5500000000000001554 ) ;
#88 = DIRECTION ( 'NONE',  ( 1.000000000000000000, 0.0000000000000000000, -3.469446951953614189E-15 ) ) ;
#89 = DIRECTION ( 'NONE',  ( -1.000000000000000000, 0.0000000000000000000, 4.336808689942017736E-15 ) ) ;
#90 = CC_DESIGN_DATE_AND_TIME_ASSIGNMENT ( #61, #199, ( #25 ) ) ;
#91 = AXIS2_PLACEMENT_3D ( 'NONE', #129, #66, #31 ) ;
#92 = DIRECTION ( 'NONE',  ( 3.491481338843133355E-15, -0.0000000000000000000, 1.000000000000000000 ) ) ;
#93 = DESIGN_CONTEXT ( 'detailed design', #230, 'design' ) ;
#94 = DIRECTION ( 'NONE',  ( -1.000000000000000000, 0.0000000000000000000, 3.491481338843133355E-15 ) ) ;
#95 = DIRECTION ( 'NONE',  ( 1.000000000000000000, 0.0000000000000000000, -3.491481338843133355E-15 ) ) ;
#96 = CARTESIAN_POINT ( 'NONE',  ( 0.5500000000000059286, 0.0000000000000000000, 1.649999999999997913 ) ) ;
#97 = CALENDAR_DATE ( 2021, 9, 11 ) ;
#98 = APPROVAL_STATUS ( 'not_yet_approved' ) ;
#99 = UNCERTAINTY_MEASURE_WITH_UNIT (LENGTH_MEASURE( 1.000000000000000082E-05 ), #154, 'distance_accuracy_value', 'NONE');
#100 = EDGE_LOOP ( 'NONE', ( #45 ) ) ;
#101 = ADVANCED_FACE ( 'NONE', ( #190 ), #30, .T. ) ;
#102 = CIRCLE ( 'NONE', #136, 2.000000000000000000 ) ;
#103 = PERSON_AND_ORGANIZATION ( #10, #122 ) ;
#104 = EDGE_LOOP ( 'NONE', ( #197 ) ) ;
#105 = PRODUCT_DEFINITION_FORMATION_WITH_SPECIFIED_SOURCE ( 'ANY', '', #113, .NOT_KNOWN. ) ;
#106 = FACE_BOUND ( 'NONE', #234, .T. ) ;
#107 = DIRECTION ( 'NONE',  ( -1.000000000000000000, 0.0000000000000000000, 3.491481338843133355E-15 ) ) ;
#108 = ADVANCED_FACE ( 'NONE', ( #106, #16 ), #73, .T. ) ;
#109 = DIRECTION ( 'NONE',  ( 1.000000000000000000, 0.0000000000000000000, -3.469446951953614189E-15 ) ) ;
#110 = FACE_OUTER_BOUND ( 'NONE', #120, .T. ) ;
#111 = CARTESIAN_POINT ( 'NONE',  ( 1.326762908760390423E-13, 0.0000000000000000000, 38.00000000000000000 ) ) ;
#112 = DIRECTION ( 'NONE',  ( 3.491481338843133355E-15, -0.0000000000000000000, 1.000000000000000000 ) ) ;
#113 = PRODUCT ( '334923', '334923', '', ( #76 ) ) ;
#114 = VERTEX_POINT ( 'NONE', #78 ) ;
#115 = AXIS2_PLACEMENT_3D ( 'NONE', #148, #92, #168 ) ;
#116 = DIRECTION ( 'NONE',  ( 1.000000000000000000, 0.0000000000000000000, 0.0000000000000000000 ) ) ;
#117 = DATE_TIME_ROLE ( 'creation_date' ) ;
#118 = COORDINATED_UNIVERSAL_TIME_OFFSET ( 1, 0, .AHEAD. ) ;
#119 = ORIENTED_EDGE ( 'NONE', *, *, #177, .T. ) ;
#120 = EDGE_LOOP ( 'NONE', ( #58 ) ) ;
#121 = AXIS2_PLACEMENT_3D ( 'NONE', #50, #132, #19 ) ;
#122 = ORGANIZATION ( 'UNSPECIFIED', 'UNSPECIFIED', '' ) ;
#123 = EDGE_LOOP ( 'NONE', ( #160 ) ) ;
#124 = SECURITY_CLASSIFICATION_LEVEL ( 'unclassified' ) ;
#125 = ORIENTED_EDGE ( 'NONE', *, *, #52, .T. ) ;
#126 = CARTESIAN_POINT ( 'NONE',  ( 7.568267941316426417E-15, 0.0000000000000000000, 2.167638090205028512 ) ) ;
#127 = AXIS2_PLACEMENT_3D ( 'NONE', #126, #223, #145 ) ;
#128 = ADVANCED_FACE ( 'NONE', ( #47, #110 ), #205, .T. ) ;
#129 = CARTESIAN_POINT ( 'NONE',  ( 5.760944209091169247E-15, 0.0000000000000000000, 1.649999999999999689 ) ) ;
#130 = DIRECTION ( 'NONE',  ( 3.491481338843133355E-15, -0.0000000000000000000, 1.000000000000000000 ) ) ;
#131 = CLOSED_SHELL ( 'NONE', ( #128, #212, #221, #198, #108, #173 ) ) ;
#132 = DIRECTION ( 'NONE',  ( 3.491481338843133355E-15, -0.0000000000000000000, 1.000000000000000000 ) ) ;
#133 = PRODUCT_RELATED_PRODUCT_CATEGORY ( 'detail', '', ( #113 ) ) ;
#134 = DATE_AND_TIME ( #195, #15 ) ;
#135 = DIRECTION ( 'NONE',  ( 1.000000000000000000, 0.0000000000000000000, -3.491481338843133355E-15 ) ) ;
#136 = AXIS2_PLACEMENT_3D ( 'NONE', #35, #241, #67 ) ;
#137 = PERSON_AND_ORGANIZATION ( #10, #122 ) ;
#138 = AXIS2_PLACEMENT_3D ( 'NONE', #111, #68, #89 ) ;
#139 = PLANE ( 'NONE',  #36 ) ;
#140 = APPROVAL_ROLE ( '' ) ;
#141 = AXIS2_PLACEMENT_3D ( 'NONE', #33, #130, #88 ) ;
#142 = FACE_OUTER_BOUND ( 'NONE', #13, .T. ) ;
#143 = APPROVAL ( #175, 'UNSPECIFIED' ) ;
#144 = ORIENTED_EDGE ( 'NONE', *, *, #218, .T. ) ;
#145 = DIRECTION ( 'NONE',  ( 1.000000000000000000, 0.0000000000000000000, -3.507902842440450416E-15 ) ) ;
#146 = DIRECTION ( 'NONE',  ( 3.491481338843133355E-15, -0.0000000000000000000, 1.000000000000000000 ) ) ;
#147 = CC_DESIGN_APPROVAL ( #206, ( #105 ) ) ;
#148 = CARTESIAN_POINT ( 'NONE',  ( -9.831781012932406109E-37, 0.0000000000000000000, -2.815934000148506281E-22 ) ) ;
#149 = PLANE ( 'NONE',  #54 ) ;
#150 = CC_DESIGN_DATE_AND_TIME_ASSIGNMENT ( #229, #117, ( #161 ) ) ;
#151 = DIRECTION ( 'NONE',  ( 3.491481338843133355E-15, -0.0000000000000000000, 1.000000000000000000 ) ) ;
#152 = CIRCLE ( 'NONE', #227, 2.000000000000000000 ) ;
#153 = CARTESIAN_POINT ( 'NONE',  ( 1.326762908760390423E-13, 0.0000000000000000000, 38.00000000000000000 ) ) ;
#154 =( LENGTH_UNIT ( ) NAMED_UNIT ( * ) SI_UNIT ( .MILLI., .METRE. ) );
#155 = AXIS2_PLACEMENT_3D ( 'NONE', #69, #46, #202 ) ;
#156 = APPROVAL_PERSON_ORGANIZATION ( #193, #143, #7 ) ;
#157 = CALENDAR_DATE ( 2021, 9, 11 ) ;
#158 = CIRCLE ( 'NONE', #91, 0.5500000000000001554 ) ;
#159 = EDGE_LOOP ( 'NONE', ( #62 ) ) ;
#160 = ORIENTED_EDGE ( 'NONE', *, *, #210, .T. ) ;
#161 = PRODUCT_DEFINITION ( 'UNKNOWN', '', #105, #93 ) ;
#162 = ORIENTED_EDGE ( 'NONE', *, *, #210, .F. ) ;
#163 = PLANE ( 'NONE',  #59 ) ;
#164 = APPROVAL ( #98, 'UNSPECIFIED' ) ;
#165 = ADVANCED_FACE ( 'NONE', ( #169 ), #149, .F. ) ;
#166 = DIRECTION ( 'NONE',  ( 1.000000000000000000, 0.0000000000000000000, -4.336808689942017736E-15 ) ) ;
#167 = CIRCLE ( 'NONE', #155, 0.5500000000000001554 ) ;
#168 = DIRECTION ( 'NONE',  ( 1.000000000000000000, 0.0000000000000000000, -3.491481338843133750E-15 ) ) ;
#169 = FACE_OUTER_BOUND ( 'NONE', #179, .T. ) ;
#170 = VERTEX_POINT ( 'NONE', #96 ) ;
#171 = CC_DESIGN_PERSON_AND_ORGANIZATION_ASSIGNMENT ( #28, #236, ( #105 ) ) ;
#172 =( NAMED_UNIT ( * ) SI_UNIT ( $, .STERADIAN. ) SOLID_ANGLE_UNIT ( ) );
#173 = ADVANCED_FACE ( 'NONE', ( #1 ), #163, .T. ) ;
#174 = EDGE_CURVE ( 'NONE', #38, #38, #102, .T. ) ;
#175 = APPROVAL_STATUS ( 'not_yet_approved' ) ;
#176 = APPROVAL_DATE_TIME ( #56, #143 ) ;
#177 = EDGE_CURVE ( 'NONE', #228, #228, #158, .T. ) ;
#178 = ORIENTED_EDGE ( 'NONE', *, *, #18, .T. ) ;
#179 = EDGE_LOOP ( 'NONE', ( #119 ) ) ;
#180 = CC_DESIGN_PERSON_AND_ORGANIZATION_ASSIGNMENT ( #103, #231, ( #105 ) ) ;
#181 = APPROVAL_DATE_TIME ( #134, #206 ) ;
#182 = EDGE_LOOP ( 'NONE', ( #144 ) ) ;
#183 = EDGE_LOOP ( 'NONE', ( #65 ) ) ;
#184 = CARTESIAN_POINT ( 'NONE',  ( -4.915890506466203054E-37, 0.0000000000000000000, -1.407967000074253141E-22 ) ) ;
#185 = FACE_OUTER_BOUND ( 'NONE', #100, .T. ) ;
#186 = FACE_OUTER_BOUND ( 'NONE', #86, .T. ) ;
#187 = AXIS2_PLACEMENT_3D ( 'NONE', #184, #204, #107 ) ;
#188 = LOCAL_TIME ( 7, 59, 39.00000000000000000, #118 ) ;
#189 = CYLINDRICAL_SURFACE ( 'NONE', #40, 0.5500000000000001554 ) ;
#190 = FACE_OUTER_BOUND ( 'NONE', #159, .T. ) ;
#191 = VERTEX_POINT ( 'NONE', #209 ) ;
#192 =( NAMED_UNIT ( * ) PLANE_ANGLE_UNIT ( ) SI_UNIT ( $, .RADIAN. ) );
#193 = PERSON_AND_ORGANIZATION ( #10, #122 ) ;
#194 = CARTESIAN_POINT ( 'NONE',  ( 0.5500000000000059286, 0.0000000000000000000, 1.649999999999997913 ) ) ;
#195 = CALENDAR_DATE ( 2021, 9, 11 ) ;
#196 = SHAPE_DEFINITION_REPRESENTATION ( #71, #240 ) ;
#197 = ORIENTED_EDGE ( 'NONE', *, *, #18, .F. ) ;
#198 = ADVANCED_FACE ( 'NONE', ( #70, #185 ), #79, .F. ) ;
#199 = DATE_TIME_ROLE ( 'classification_date' ) ;
#200 = ORIENTED_EDGE ( 'NONE', *, *, #177, .F. ) ;
#201 = PERSON_AND_ORGANIZATION_ROLE ( 'classification_officer' ) ;
#202 = DIRECTION ( 'NONE',  ( 1.000000000000000000, 0.0000000000000000000, -3.548298019043467945E-15 ) ) ;
#203 = LOCAL_TIME ( 7, 59, 39.00000000000000000, #81 ) ;
#204 = DIRECTION ( 'NONE',  ( -3.491481338843133355E-15, 0.0000000000000000000, -1.000000000000000000 ) ) ;
#205 = CYLINDRICAL_SURFACE ( 'NONE', #243, 2.000000000000000000 ) ;
#206 = APPROVAL ( #57, 'UNSPECIFIED' ) ;
#207 = DIRECTION ( 'NONE',  ( 3.491481338843133355E-15, -0.0000000000000000000, 1.000000000000000000 ) ) ;
#208 = DIRECTION ( 'NONE',  ( 3.491481338843133355E-15, -0.0000000000000000000, 1.000000000000000000 ) ) ;
#209 = CARTESIAN_POINT ( 'NONE',  ( 0.5500000000000001554, 0.0000000000000000000, -1.920315017957124110E-15 ) ) ;
#210 = EDGE_CURVE ( 'NONE', #114, #114, #20, .T. ) ;
#211 = APPLICATION_PROTOCOL_DEFINITION ( 'international standard', 'config_control_design', 1994, #230 ) ;
#212 = ADVANCED_FACE ( 'NONE', ( #186, #48 ), #216, .T. ) ;
#213 = CARTESIAN_POINT ( 'NONE',  ( 2.000000000000131450, 0.0000000000000000000, 37.59999999999999432 ) ) ;
#214 = PERSON_AND_ORGANIZATION ( #10, #122 ) ;
#215 = PERSON_AND_ORGANIZATION ( #10, #122 ) ;
#216 = CONICAL_SURFACE ( 'NONE', #138, 1.600000000000000089, 0.7853981633974512766 ) ;
#217 = PERSON_AND_ORGANIZATION ( #10, #122 ) ;
#218 = EDGE_CURVE ( 'NONE', #191, #191, #87, .T. ) ;
#219 = DIRECTION ( 'NONE',  ( 1.000000000000000000, 0.0000000000000000000, -3.491481338843133750E-15 ) ) ;
#220 = DIRECTION ( 'NONE',  ( -3.491481338843133355E-15, 0.0000000000000000000, -1.000000000000000000 ) ) ;
#221 = ADVANCED_FACE ( 'NONE', ( #222 ), #139, .T. ) ;
#222 = FACE_OUTER_BOUND ( 'NONE', #123, .T. ) ;
#223 = DIRECTION ( 'NONE',  ( 3.491481338843133355E-15, -0.0000000000000000000, 1.000000000000000000 ) ) ;
#224 = CC_DESIGN_APPROVAL ( #164, ( #25 ) ) ;
#225 = PERSON_AND_ORGANIZATION ( #10, #122 ) ;
#226 = CARTESIAN_POINT ( 'NONE',  ( 0.0000000000000000000, 0.0000000000000000000, 0.0000000000000000000 ) ) ;
#227 = AXIS2_PLACEMENT_3D ( 'NONE', #239, #208, #109 ) ;
#228 = VERTEX_POINT ( 'NONE', #194 ) ;
#229 = DATE_AND_TIME ( #157, #203 ) ;
#230 = APPLICATION_CONTEXT ( 'configuration controlled 3d designs of mechanical parts and assemblies' ) ;
#231 = PERSON_AND_ORGANIZATION_ROLE ( 'creator' ) ;
#232 = ORIENTED_EDGE ( 'NONE', *, *, #27, .T. ) ;
#233 = DATE_AND_TIME ( #12, #188 ) ;
#234 = EDGE_LOOP ( 'NONE', ( #232 ) ) ;
#235 = CC_DESIGN_PERSON_AND_ORGANIZATION_ASSIGNMENT ( #225, #9, ( #161 ) ) ;
#236 = PERSON_AND_ORGANIZATION_ROLE ( 'design_supplier' ) ;
#237 = CC_DESIGN_APPROVAL ( #143, ( #161 ) ) ;
#238 = EDGE_LOOP ( 'NONE', ( #85 ) ) ;
#239 = CARTESIAN_POINT ( 'NONE',  ( 1.312796983405018142E-13, 0.0000000000000000000, 37.60000000000000142 ) ) ;
#240 = ADVANCED_BREP_SHAPE_REPRESENTATION ( '334923', ( #75, #77, #84 ), #64 ) ;
#241 = DIRECTION ( 'NONE',  ( 3.491481338843133355E-15, -0.0000000000000000000, 1.000000000000000000 ) ) ;
#242 = DIRECTION ( 'NONE',  ( -1.000000000000000000, 0.0000000000000000000, 3.491481338843133355E-15 ) ) ;
#243 = AXIS2_PLACEMENT_3D ( 'NONE', #49, #146, #95 ) ;
ENDSEC;
END-ISO-10303-21;
