ISO-10303-21;
HEADER;
FILE_DESCRIPTION (( 'STEP AP203' ),
    '1' );
FILE_NAME ('334922.step',
    '2021-11-09T06:59:39',
    ( '' ),
    ( '' ),
    'SwSTEP 2.0',
    'SolidWorks 2019',
    '' );
FILE_SCHEMA (( 'CONFIG_CONTROL_DESIGN' ));
ENDSEC;

DATA;
#1 = CC_DESIGN_PERSON_AND_ORGANIZATION_ASSIGNMENT ( #94, #13, ( #52 ) ) ;
#2 = MANIFOLD_SOLID_BREP ( 'Corps-Déplacer/Copier1[2]', #203 ) ;
#3 = VERTEX_POINT ( 'NONE', #46 ) ;
#4 = APPLICATION_CONTEXT ( 'configuration controlled 3d designs of mechanical parts and assemblies' ) ;
#5 = AXIS2_PLACEMENT_3D ( 'NONE', #231, #119, #103 ) ;
#6 = DIRECTION ( 'NONE',  ( 3.491481338843133355E-15, -0.0000000000000000000, 1.000000000000000000 ) ) ;
#7 = DIRECTION ( 'NONE',  ( 3.491481338843133355E-15, -0.0000000000000000000, 1.000000000000000000 ) ) ;
#8 = ADVANCED_FACE ( 'NONE', ( #140, #241 ), #126, .T. ) ;
#9 = DIRECTION ( 'NONE',  ( 3.491481338843133355E-15, -0.0000000000000000000, 1.000000000000000000 ) ) ;
#10 = PRODUCT_DEFINITION_SHAPE ( 'NONE', 'NONE',  #197 ) ;
#11 = PERSON_AND_ORGANIZATION ( #199, #54 ) ;
#12 = EDGE_LOOP ( 'NONE', ( #18 ) ) ;
#13 = PERSON_AND_ORGANIZATION_ROLE ( 'design_owner' ) ;
#14 = UNCERTAINTY_MEASURE_WITH_UNIT (LENGTH_MEASURE( 1.000000000000000082E-05 ), #86, 'distance_accuracy_value', 'NONE');
#15 = DATE_AND_TIME ( #153, #139 ) ;
#16 = CALENDAR_DATE ( 2021, 9, 11 ) ;
#17 = ADVANCED_FACE ( 'NONE', ( #48 ), #118, .F. ) ;
#18 = ORIENTED_EDGE ( 'NONE', *, *, #187, .T. ) ;
#19 = EDGE_LOOP ( 'NONE', ( #242 ) ) ;
#20 = ADVANCED_FACE ( 'NONE', ( #148 ), #36, .T. ) ;
#21 = AXIS2_PLACEMENT_3D ( 'NONE', #170, #6, #85 ) ;
#22 = DIRECTION ( 'NONE',  ( -3.491481338843133355E-15, 0.0000000000000000000, -1.000000000000000000 ) ) ;
#23 = DIRECTION ( 'NONE',  ( 3.491481338843133355E-15, -0.0000000000000000000, 1.000000000000000000 ) ) ;
#24 = CARTESIAN_POINT ( 'NONE',  ( 2.000000000000131450, 0.0000000000000000000, 37.59999999999999432 ) ) ;
#25 = DIRECTION ( 'NONE',  ( 3.491481338843133355E-15, -0.0000000000000000000, 1.000000000000000000 ) ) ;
#26 = CARTESIAN_POINT ( 'NONE',  ( 0.5000000000000052180, 0.0000000000000000000, 1.499999999999998002 ) ) ;
#27 = TOROIDAL_SURFACE ( 'NONE', #95, 2.500000000000000000, 2.000000000000000000 ) ;
#28 = CC_DESIGN_PERSON_AND_ORGANIZATION_ASSIGNMENT ( #156, #212, ( #197 ) ) ;
#29 = DIRECTION ( 'NONE',  ( 3.491481338843133355E-15, -0.0000000000000000000, 1.000000000000000000 ) ) ;
#30 = DIRECTION ( 'NONE',  ( -1.000000000000000000, 0.0000000000000000000, 3.491481338843133355E-15 ) ) ;
#31 = PERSON_AND_ORGANIZATION ( #199, #54 ) ;
#32 = PERSON_AND_ORGANIZATION_ROLE ( 'creator' ) ;
#33 = FACE_OUTER_BOUND ( 'NONE', #202, .T. ) ;
#34 = AXIS2_PLACEMENT_3D ( 'NONE', #186, #7, #117 ) ;
#35 = PERSON_AND_ORGANIZATION_ROLE ( 'design_supplier' ) ;
#36 = PLANE ( 'NONE',  #141 ) ;
#37 = ORIENTED_EDGE ( 'NONE', *, *, #223, .F. ) ;
#38 = COORDINATED_UNIVERSAL_TIME_OFFSET ( 1, 0, .AHEAD. ) ;
#39 = EDGE_LOOP ( 'NONE', ( #89 ) ) ;
#40 = EDGE_LOOP ( 'NONE', ( #72 ) ) ;
#41 = EDGE_LOOP ( 'NONE', ( #181 ) ) ;
#42 = ADVANCED_FACE ( 'NONE', ( #33, #87 ), #150, .T. ) ;
#43 = EDGE_LOOP ( 'NONE', ( #77 ) ) ;
#44 = ADVANCED_FACE ( 'NONE', ( #174, #130 ), #193, .T. ) ;
#45 = CC_DESIGN_PERSON_AND_ORGANIZATION_ASSIGNMENT ( #239, #35, ( #182 ) ) ;
#46 = CARTESIAN_POINT ( 'NONE',  ( 0.5681483474218670393, 0.0000000000000000000, 2.017638090205026380 ) ) ;
#47 = VERTEX_POINT ( 'NONE', #26 ) ;
#48 = FACE_OUTER_BOUND ( 'NONE', #19, .T. ) ;
#49 = PERSON_AND_ORGANIZATION_ROLE ( 'classification_officer' ) ;
#50 = DIRECTION ( 'NONE',  ( -3.491481338843133355E-15, 0.0000000000000000000, -1.000000000000000000 ) ) ;
#51 = COORDINATED_UNIVERSAL_TIME_OFFSET ( 1, 0, .AHEAD. ) ;
#52 = PRODUCT ( '334922', '334922', '', ( #134 ) ) ;
#53 = CIRCLE ( 'NONE', #83, 1.600000000000000089 ) ;
#54 = ORGANIZATION ( 'UNSPECIFIED', 'UNSPECIFIED', '' ) ;
#55 = CALENDAR_DATE ( 2021, 9, 11 ) ;
#56 = EDGE_CURVE ( 'NONE', #165, #165, #232, .T. ) ;
#57 = CONICAL_SURFACE ( 'NONE', #164, 1.600000000000000089, 0.7853981633974512766 ) ;
#58 = EDGE_CURVE ( 'NONE', #149, #149, #145, .T. ) ;
#59 = FACE_OUTER_BOUND ( 'NONE', #40, .T. ) ;
#60 = CC_DESIGN_DATE_AND_TIME_ASSIGNMENT ( #15, #138, ( #142 ) ) ;
#61 = AXIS2_PLACEMENT_3D ( 'NONE', #73, #25, #99 ) ;
#62 = DIRECTION ( 'NONE',  ( 3.491481338843133355E-15, -0.0000000000000000000, 1.000000000000000000 ) ) ;
#63 = ADVANCED_FACE ( 'NONE', ( #143, #189 ), #57, .T. ) ;
#64 = CC_DESIGN_PERSON_AND_ORGANIZATION_ASSIGNMENT ( #107, #32, ( #182 ) ) ;
#65 = CARTESIAN_POINT ( 'NONE',  ( 1.312796983405018142E-13, 0.0000000000000000000, 37.60000000000000142 ) ) ;
#66 = DIRECTION ( 'NONE',  ( 1.000000000000000000, 0.0000000000000000000, -3.491481338843133355E-15 ) ) ;
#67 = DIRECTION ( 'NONE',  ( -3.491481338843133355E-15, 0.0000000000000000000, -1.000000000000000000 ) ) ;
#68 = COORDINATED_UNIVERSAL_TIME_OFFSET ( 1, 0, .AHEAD. ) ;
#69 = AXIS2_PLACEMENT_3D ( 'NONE', #227, #29, #147 ) ;
#70 = APPROVAL_ROLE ( '' ) ;
#71 = DATE_AND_TIME ( #16, #100 ) ;
#72 = ORIENTED_EDGE ( 'NONE', *, *, #163, .F. ) ;
#73 = CARTESIAN_POINT ( 'NONE',  ( 0.0000000000000000000, 0.0000000000000000000, 0.0000000000000000000 ) ) ;
#74 = APPLICATION_PROTOCOL_DEFINITION ( 'international standard', 'config_control_design', 1994, #4 ) ;
#75 = CC_DESIGN_SECURITY_CLASSIFICATION ( #142, ( #182 ) ) ;
#76 = APPROVAL ( #121, 'UNSPECIFIED' ) ;
#77 = ORIENTED_EDGE ( 'NONE', *, *, #56, .T. ) ;
#78 = CIRCLE ( 'NONE', #34, 2.000000000000000000 ) ;
#79 =( GEOMETRIC_REPRESENTATION_CONTEXT ( 3 ) GLOBAL_UNCERTAINTY_ASSIGNED_CONTEXT ( ( #14 ) ) GLOBAL_UNIT_ASSIGNED_CONTEXT ( ( #86, #84, #146 ) ) REPRESENTATION_CONTEXT ( 'NONE', 'WORKASPACE' ) );
#80 = APPROVAL ( #177, 'UNSPECIFIED' ) ;
#81 = VERTEX_POINT ( 'NONE', #205 ) ;
#82 = DIRECTION ( 'NONE',  ( 1.000000000000000000, 0.0000000000000000000, -3.816616478444019910E-15 ) ) ;
#83 = AXIS2_PLACEMENT_3D ( 'NONE', #128, #23, #183 ) ;
#84 =( NAMED_UNIT ( * ) PLANE_ANGLE_UNIT ( ) SI_UNIT ( $, .RADIAN. ) );
#85 = DIRECTION ( 'NONE',  ( 1.000000000000000000, 0.0000000000000000000, -3.469446951953614189E-15 ) ) ;
#86 =( LENGTH_UNIT ( ) NAMED_UNIT ( * ) SI_UNIT ( .MILLI., .METRE. ) );
#87 = FACE_OUTER_BOUND ( 'NONE', #160, .T. ) ;
#88 = CARTESIAN_POINT ( 'NONE',  ( 2.570212511070392691E-14, 0.0000000000000000000, 7.361381206528247567 ) ) ;
#89 = ORIENTED_EDGE ( 'NONE', *, *, #58, .T. ) ;
#90 = PERSON_AND_ORGANIZATION ( #199, #54 ) ;
#91 = CARTESIAN_POINT ( 'NONE',  ( 5.237222008264700033E-15, -1.626303258728256404E-16, 1.500000000000000000 ) ) ;
#92 = DATE_AND_TIME ( #55, #157 ) ;
#93 = ORIENTED_EDGE ( 'NONE', *, *, #56, .F. ) ;
#94 = PERSON_AND_ORGANIZATION ( #199, #54 ) ;
#95 = AXIS2_PLACEMENT_3D ( 'NONE', #115, #9, #66 ) ;
#96 = CARTESIAN_POINT ( 'NONE',  ( -4.915890506466203054E-37, 0.0000000000000000000, -1.407967000074253141E-22 ) ) ;
#97 = FACE_OUTER_BOUND ( 'NONE', #12, .T. ) ;
#98 = CARTESIAN_POINT ( 'NONE',  ( -9.831781012932406109E-37, 0.0000000000000000000, -2.815934000148506281E-22 ) ) ;
#99 = DIRECTION ( 'NONE',  ( 1.000000000000000000, 0.0000000000000000000, -3.491481338843133355E-15 ) ) ;
#100 = LOCAL_TIME ( 7, 59, 39.00000000000000000, #220 ) ;
#101 = DIRECTION ( 'NONE',  ( 3.491481338843133355E-15, -0.0000000000000000000, 1.000000000000000000 ) ) ;
#102 = FACE_OUTER_BOUND ( 'NONE', #43, .T. ) ;
#103 = DIRECTION ( 'NONE',  ( 1.000000000000000000, 0.0000000000000000000, -3.491481338843133355E-15 ) ) ;
#104 = SHAPE_DEFINITION_REPRESENTATION ( #10, #210 ) ;
#105 = APPROVAL_STATUS ( 'not_yet_approved' ) ;
#106 = EDGE_LOOP ( 'NONE', ( #155 ) ) ;
#107 = PERSON_AND_ORGANIZATION ( #199, #54 ) ;
#108 = EDGE_CURVE ( 'NONE', #131, #131, #78, .T. ) ;
#109 = ORIENTED_EDGE ( 'NONE', *, *, #187, .F. ) ;
#110 = ORIENTED_EDGE ( 'NONE', *, *, #108, .T. ) ;
#111 = CIRCLE ( 'NONE', #168, 0.5681483474218600449 ) ;
#112 = APPROVAL_PERSON_ORGANIZATION ( #31, #80, #70 ) ;
#113 = APPLICATION_PROTOCOL_DEFINITION ( 'international standard', 'config_control_design', 1994, #206 ) ;
#114 = DIRECTION ( 'NONE',  ( -1.000000000000000000, 0.0000000000000000000, 4.336808689942017736E-15 ) ) ;
#115 = CARTESIAN_POINT ( 'NONE',  ( 5.237222008264700033E-15, 0.0000000000000000000, 1.500000000000000000 ) ) ;
#116 = CIRCLE ( 'NONE', #211, 0.5000000000000000000 ) ;
#117 = DIRECTION ( 'NONE',  ( 1.000000000000000000, 0.0000000000000000000, -3.469446951953614189E-15 ) ) ;
#118 = PLANE ( 'NONE',  #133 ) ;
#119 = DIRECTION ( 'NONE',  ( 3.491481338843133355E-15, -0.0000000000000000000, 1.000000000000000000 ) ) ;
#120 = COORDINATED_UNIVERSAL_TIME_OFFSET ( 1, 0, .AHEAD. ) ;
#121 = APPROVAL_STATUS ( 'not_yet_approved' ) ;
#122 = EDGE_LOOP ( 'NONE', ( #109 ) ) ;
#123 = ADVANCED_FACE ( 'NONE', ( #97 ), #224, .T. ) ;
#124 = EDGE_LOOP ( 'NONE', ( #221 ) ) ;
#125 = ADVANCED_FACE ( 'NONE', ( #59 ), #188, .T. ) ;
#126 = CONICAL_SURFACE ( 'NONE', #184, 2.000000000000000000, 0.2617993877991428575 ) ;
#127 = APPROVAL_PERSON_ORGANIZATION ( #11, #162, #218 ) ;
#128 = CARTESIAN_POINT ( 'NONE',  ( 1.326762908760390423E-13, 0.0000000000000000000, 38.00000000000000000 ) ) ;
#129 = CARTESIAN_POINT ( 'NONE',  ( 0.5000000000000052180, 0.0000000000000000000, 1.499999999999998002 ) ) ;
#130 = FACE_OUTER_BOUND ( 'NONE', #158, .T. ) ;
#131 = VERTEX_POINT ( 'NONE', #190 ) ;
#132 = DIRECTION ( 'NONE',  ( 3.491481338843133355E-15, -0.0000000000000000000, 1.000000000000000000 ) ) ;
#133 = AXIS2_PLACEMENT_3D ( 'NONE', #237, #50, #191 ) ;
#134 = MECHANICAL_CONTEXT ( 'NONE', #206, 'mechanical' ) ;
#135 = DIRECTION ( 'NONE',  ( 1.000000000000000000, 0.0000000000000000000, -3.469446951953614189E-15 ) ) ;
#136 = APPROVAL_DATE_TIME ( #92, #162 ) ;
#137 = SECURITY_CLASSIFICATION_LEVEL ( 'unclassified' ) ;
#138 = DATE_TIME_ROLE ( 'classification_date' ) ;
#139 = LOCAL_TIME ( 7, 59, 39.00000000000000000, #38 ) ;
#140 = FACE_BOUND ( 'NONE', #106, .T. ) ;
#141 = AXIS2_PLACEMENT_3D ( 'NONE', #91, #67, #30 ) ;
#142 = SECURITY_CLASSIFICATION ( '', '', #137 ) ;
#143 = FACE_OUTER_BOUND ( 'NONE', #39, .T. ) ;
#144 = DIRECTION ( 'NONE',  ( 1.000000000000000000, 0.0000000000000000000, -3.491481338843133355E-15 ) ) ;
#145 = CIRCLE ( 'NONE', #243, 2.000000000000000000 ) ;
#146 =( NAMED_UNIT ( * ) SI_UNIT ( $, .STERADIAN. ) SOLID_ANGLE_UNIT ( ) );
#147 = DIRECTION ( 'NONE',  ( 1.000000000000000000, 0.0000000000000000000, -3.491481338843133355E-15 ) ) ;
#148 = FACE_OUTER_BOUND ( 'NONE', #180, .T. ) ;
#149 = VERTEX_POINT ( 'NONE', #24 ) ;
#150 = CYLINDRICAL_SURFACE ( 'NONE', #5, 2.000000000000000000 ) ;
#151 = CARTESIAN_POINT ( 'NONE',  ( 0.0000000000000000000, 0.0000000000000000000, 0.0000000000000000000 ) ) ;
#152 = DIRECTION ( 'NONE',  ( 3.491481338843133355E-15, -0.0000000000000000000, 1.000000000000000000 ) ) ;
#153 = CALENDAR_DATE ( 2021, 9, 11 ) ;
#154 = APPROVAL_DATE_TIME ( #159, #80 ) ;
#155 = ORIENTED_EDGE ( 'NONE', *, *, #235, .T. ) ;
#156 = PERSON_AND_ORGANIZATION ( #199, #54 ) ;
#157 = LOCAL_TIME ( 7, 59, 39.00000000000000000, #120 ) ;
#158 = EDGE_LOOP ( 'NONE', ( #37 ) ) ;
#159 = DATE_AND_TIME ( #194, #185 ) ;
#160 = EDGE_LOOP ( 'NONE', ( #110 ) ) ;
#161 = ORIENTED_EDGE ( 'NONE', *, *, #235, .F. ) ;
#162 = APPROVAL ( #105, 'UNSPECIFIED' ) ;
#163 = EDGE_CURVE ( 'NONE', #209, #209, #116, .T. ) ;
#164 = AXIS2_PLACEMENT_3D ( 'NONE', #171, #22, #114 ) ;
#165 = VERTEX_POINT ( 'NONE', #129 ) ;
#166 = DIRECTION ( 'NONE',  ( 1.000000000000000000, 0.0000000000000000000, -3.469446951953614189E-15 ) ) ;
#167 = CARTESIAN_POINT ( 'NONE',  ( 0.5000000000000000000, 0.0000000000000000000, -1.745740951014966654E-15 ) ) ;
#168 = AXIS2_PLACEMENT_3D ( 'NONE', #228, #62, #82 ) ;
#169 = CC_DESIGN_APPROVAL ( #162, ( #142 ) ) ;
#170 = CARTESIAN_POINT ( 'NONE',  ( 5.237222008264699244E-15, 0.0000000000000000000, 1.499999999999999778 ) ) ;
#171 = CARTESIAN_POINT ( 'NONE',  ( 1.326762908760390423E-13, 0.0000000000000000000, 38.00000000000000000 ) ) ;
#172 = CARTESIAN_POINT ( 'NONE',  ( 5.237222008264699244E-15, 0.0000000000000000000, 1.499999999999999778 ) ) ;
#173 = DIRECTION ( 'NONE',  ( -1.000000000000000000, 0.0000000000000000000, 3.491481338843133355E-15 ) ) ;
#174 = FACE_OUTER_BOUND ( 'NONE', #124, .T. ) ;
#175 = CALENDAR_DATE ( 2021, 9, 11 ) ;
#176 = DIRECTION ( 'NONE',  ( 0.0000000000000000000, 0.0000000000000000000, 1.000000000000000000 ) ) ;
#177 = APPROVAL_STATUS ( 'not_yet_approved' ) ;
#178 = APPROVAL_DATE_TIME ( #71, #76 ) ;
#179 = AXIS2_PLACEMENT_3D ( 'NONE', #151, #176, #213 ) ;
#180 = EDGE_LOOP ( 'NONE', ( #93 ) ) ;
#181 = ORIENTED_EDGE ( 'NONE', *, *, #108, .F. ) ;
#182 = PRODUCT_DEFINITION_FORMATION_WITH_SPECIFIED_SOURCE ( 'ANY', '', #52, .NOT_KNOWN. ) ;
#183 = DIRECTION ( 'NONE',  ( 1.000000000000000000, 0.0000000000000000000, -4.336808689942017736E-15 ) ) ;
#184 = AXIS2_PLACEMENT_3D ( 'NONE', #88, #152, #216 ) ;
#185 = LOCAL_TIME ( 7, 59, 39.00000000000000000, #51 ) ;
#186 = CARTESIAN_POINT ( 'NONE',  ( 2.570212511070392691E-14, 0.0000000000000000000, 7.361381206528247567 ) ) ;
#187 = EDGE_CURVE ( 'NONE', #81, #81, #53, .T. ) ;
#188 = PLANE ( 'NONE',  #195 ) ;
#189 = FACE_BOUND ( 'NONE', #122, .T. ) ;
#190 = CARTESIAN_POINT ( 'NONE',  ( 2.000000000000025757, 0.0000000000000000000, 7.361381206528240462 ) ) ;
#191 = DIRECTION ( 'NONE',  ( -1.000000000000000000, 0.0000000000000000000, 3.491481338843133355E-15 ) ) ;
#192 = FACE_OUTER_BOUND ( 'NONE', #198, .T. ) ;
#193 = CYLINDRICAL_SURFACE ( 'NONE', #61, 0.5000000000000000000 ) ;
#194 = CALENDAR_DATE ( 2021, 9, 11 ) ;
#195 = AXIS2_PLACEMENT_3D ( 'NONE', #96, #230, #173 ) ;
#196 = DATE_AND_TIME ( #175, #226 ) ;
#197 = PRODUCT_DEFINITION ( 'UNKNOWN', '', #182, #219 ) ;
#198 = EDGE_LOOP ( 'NONE', ( #161 ) ) ;
#199 = PERSON ( 'UNSPECIFIED', 'UNSPECIFIED', 'UNSPECIFIED', ('UNSPECIFIED'), ('UNSPECIFIED'), ('UNSPECIFIED') ) ;
#200 = CIRCLE ( 'NONE', #217, 0.5000000000000000000 ) ;
#201 = ORIENTED_EDGE ( 'NONE', *, *, #58, .F. ) ;
#202 = EDGE_LOOP ( 'NONE', ( #201 ) ) ;
#203 = CLOSED_SHELL ( 'NONE', ( #125, #44, #17 ) ) ;
#204 = CC_DESIGN_DATE_AND_TIME_ASSIGNMENT ( #196, #234, ( #197 ) ) ;
#205 = CARTESIAN_POINT ( 'NONE',  ( 1.600000000000132871, 0.0000000000000000000, 37.99999999999999289 ) ) ;
#206 = APPLICATION_CONTEXT ( 'configuration controlled 3d designs of mechanical parts and assemblies' ) ;
#207 = DIRECTION ( 'NONE',  ( 3.491481338843133355E-15, -0.0000000000000000000, 1.000000000000000000 ) ) ;
#208 = CC_DESIGN_PERSON_AND_ORGANIZATION_ASSIGNMENT ( #215, #49, ( #142 ) ) ;
#209 = VERTEX_POINT ( 'NONE', #167 ) ;
#210 = ADVANCED_BREP_SHAPE_REPRESENTATION ( '334922', ( #238, #2, #179 ), #79 ) ;
#211 = AXIS2_PLACEMENT_3D ( 'NONE', #98, #101, #144 ) ;
#212 = PERSON_AND_ORGANIZATION_ROLE ( 'creator' ) ;
#213 = DIRECTION ( 'NONE',  ( 1.000000000000000000, 0.0000000000000000000, 0.0000000000000000000 ) ) ;
#214 = PRODUCT_RELATED_PRODUCT_CATEGORY ( 'detail', '', ( #52 ) ) ;
#215 = PERSON_AND_ORGANIZATION ( #199, #54 ) ;
#216 = DIRECTION ( 'NONE',  ( 1.000000000000000000, 0.0000000000000000000, -3.469446951953614189E-15 ) ) ;
#217 = AXIS2_PLACEMENT_3D ( 'NONE', #172, #207, #166 ) ;
#218 = APPROVAL_ROLE ( '' ) ;
#219 = DESIGN_CONTEXT ( 'detailed design', #4, 'design' ) ;
#220 = COORDINATED_UNIVERSAL_TIME_OFFSET ( 1, 0, .AHEAD. ) ;
#221 = ORIENTED_EDGE ( 'NONE', *, *, #163, .T. ) ;
#222 = CC_DESIGN_APPROVAL ( #80, ( #182 ) ) ;
#223 = EDGE_CURVE ( 'NONE', #47, #47, #200, .T. ) ;
#224 = PLANE ( 'NONE',  #69 ) ;
#225 = CLOSED_SHELL ( 'NONE', ( #42, #63, #123, #229, #8, #20 ) ) ;
#226 = LOCAL_TIME ( 7, 59, 39.00000000000000000, #68 ) ;
#227 = CARTESIAN_POINT ( 'NONE',  ( 1.326762908760390423E-13, 0.0000000000000000000, 38.00000000000000000 ) ) ;
#228 = CARTESIAN_POINT ( 'NONE',  ( 7.044545740489957203E-15, 0.0000000000000000000, 2.017638090205028600 ) ) ;
#229 = ADVANCED_FACE ( 'NONE', ( #102, #192 ), #27, .F. ) ;
#230 = DIRECTION ( 'NONE',  ( -3.491481338843133355E-15, 0.0000000000000000000, -1.000000000000000000 ) ) ;
#231 = CARTESIAN_POINT ( 'NONE',  ( 0.0000000000000000000, 0.0000000000000000000, 0.0000000000000000000 ) ) ;
#232 = CIRCLE ( 'NONE', #21, 0.5000000000000000000 ) ;
#233 = APPROVAL_PERSON_ORGANIZATION ( #90, #76, #236 ) ;
#234 = DATE_TIME_ROLE ( 'creation_date' ) ;
#235 = EDGE_CURVE ( 'NONE', #3, #3, #111, .T. ) ;
#236 = APPROVAL_ROLE ( '' ) ;
#237 = CARTESIAN_POINT ( 'NONE',  ( 5.237222008264700033E-15, -1.626303258728256404E-16, 1.500000000000000000 ) ) ;
#238 = MANIFOLD_SOLID_BREP ( 'Corps-Déplacer/Copier1[1]', #225 ) ;
#239 = PERSON_AND_ORGANIZATION ( #199, #54 ) ;
#240 = CC_DESIGN_APPROVAL ( #76, ( #197 ) ) ;
#241 = FACE_OUTER_BOUND ( 'NONE', #41, .T. ) ;
#242 = ORIENTED_EDGE ( 'NONE', *, *, #223, .T. ) ;
#243 = AXIS2_PLACEMENT_3D ( 'NONE', #65, #132, #135 ) ;
ENDSEC;
END-ISO-10303-21;
