ISO-10303-21;
HEADER;
FILE_DESCRIPTION (( 'STEP AP203' ),
    '1' );
FILE_NAME ('334921.step',
    '2021-11-09T06:59:38',
    ( '' ),
    ( '' ),
    'SwSTEP 2.0',
    'SolidWorks 2019',
    '' );
FILE_SCHEMA (( 'CONFIG_CONTROL_DESIGN' ));
ENDSEC;

DATA;
#1 = EDGE_CURVE ( 'NONE', #17, #17, #20, .T. ) ;
#2 = COORDINATED_UNIVERSAL_TIME_OFFSET ( 1, 0, .AHEAD. ) ;
#3 = PRODUCT_DEFINITION_SHAPE ( 'NONE', 'NONE',  #192 ) ;
#4 = CONICAL_SURFACE ( 'NONE', #83, 1.600000000000000089, 0.7853981633974512766 ) ;
#5 = CC_DESIGN_PERSON_AND_ORGANIZATION_ASSIGNMENT ( #131, #224, ( #188 ) ) ;
#6 = EDGE_LOOP ( 'NONE', ( #176 ) ) ;
#7 = AXIS2_PLACEMENT_3D ( 'NONE', #223, #102, #160 ) ;
#8 = ORIENTED_EDGE ( 'NONE', *, *, #41, .T. ) ;
#9 = DIRECTION ( 'NONE',  ( 3.491481338843133355E-15, -0.0000000000000000000, 1.000000000000000000 ) ) ;
#10 = DESIGN_CONTEXT ( 'detailed design', #169, 'design' ) ;
#11 = DIRECTION ( 'NONE',  ( 3.491481338843133355E-15, -0.0000000000000000000, 1.000000000000000000 ) ) ;
#12 = CARTESIAN_POINT ( 'NONE',  ( 4.713499807438230818E-15, 0.0000000000000000000, 1.350000000000000089 ) ) ;
#13 = LOCAL_TIME ( 7, 59, 38.00000000000000000, #62 ) ;
#14 = EDGE_CURVE ( 'NONE', #161, #161, #204, .T. ) ;
#15 = CYLINDRICAL_SURFACE ( 'NONE', #96, 0.4499999999999999001 ) ;
#16 = DIRECTION ( 'NONE',  ( 3.491481338843133355E-15, -0.0000000000000000000, 1.000000000000000000 ) ) ;
#17 = VERTEX_POINT ( 'NONE', #129 ) ;
#18 = CC_DESIGN_DATE_AND_TIME_ASSIGNMENT ( #85, #236, ( #165 ) ) ;
#19 = CC_DESIGN_APPROVAL ( #225, ( #192 ) ) ;
#20 = CIRCLE ( 'NONE', #112, 0.4499999999999999001 ) ;
#21 = CIRCLE ( 'NONE', #233, 2.000000000000000000 ) ;
#22 = CARTESIAN_POINT ( 'NONE',  ( 0.0000000000000000000, 0.0000000000000000000, 0.0000000000000000000 ) ) ;
#23 = ADVANCED_FACE ( 'NONE', ( #219 ), #221, .T. ) ;
#24 = CC_DESIGN_APPROVAL ( #203, ( #165 ) ) ;
#25 = SHAPE_DEFINITION_REPRESENTATION ( #3, #127 ) ;
#26 = ORIENTED_EDGE ( 'NONE', *, *, #14, .T. ) ;
#27 = APPROVAL_ROLE ( '' ) ;
#28 = ADVANCED_FACE ( 'NONE', ( #218 ), #142, .F. ) ;
#29 = DIRECTION ( 'NONE',  ( -1.000000000000000000, 0.0000000000000000000, 3.491481338843133355E-15 ) ) ;
#30 = AXIS2_PLACEMENT_3D ( 'NONE', #86, #242, #73 ) ;
#31 = COORDINATED_UNIVERSAL_TIME_OFFSET ( 1, 0, .AHEAD. ) ;
#32 = DIRECTION ( 'NONE',  ( -3.491481338843133355E-15, 0.0000000000000000000, -1.000000000000000000 ) ) ;
#33 = DIRECTION ( 'NONE',  ( 1.000000000000000000, 0.0000000000000000000, -3.491481338843133355E-15 ) ) ;
#34 = VERTEX_POINT ( 'NONE', #104 ) ;
#35 = DIRECTION ( 'NONE',  ( 1.000000000000000000, 0.0000000000000000000, -3.491481338843133355E-15 ) ) ;
#36 = AXIS2_PLACEMENT_3D ( 'NONE', #187, #209, #108 ) ;
#37 = CLOSED_SHELL ( 'NONE', ( #63, #145, #135, #50, #174, #235 ) ) ;
#38 = DIRECTION ( 'NONE',  ( 1.000000000000000000, 0.0000000000000000000, -3.347928222888741460E-15 ) ) ;
#39 = VERTEX_POINT ( 'NONE', #241 ) ;
#40 = PLANE ( 'NONE',  #36 ) ;
#41 = EDGE_CURVE ( 'NONE', #167, #167, #230, .T. ) ;
#42 =( LENGTH_UNIT ( ) NAMED_UNIT ( * ) SI_UNIT ( .MILLI., .METRE. ) );
#43 = DIRECTION ( 'NONE',  ( 0.0000000000000000000, 0.0000000000000000000, 1.000000000000000000 ) ) ;
#44 = AXIS2_PLACEMENT_3D ( 'NONE', #243, #166, #60 ) ;
#45 = DIRECTION ( 'NONE',  ( 1.000000000000000000, 0.0000000000000000000, 0.0000000000000000000 ) ) ;
#46 = EDGE_CURVE ( 'NONE', #34, #34, #21, .T. ) ;
#47 = APPROVAL_ROLE ( '' ) ;
#48 = CIRCLE ( 'NONE', #139, 0.5181483474218603336 ) ;
#49 = APPROVAL_STATUS ( 'not_yet_approved' ) ;
#50 = ADVANCED_FACE ( 'NONE', ( #185, #128 ), #79, .F. ) ;
#51 = ORIENTED_EDGE ( 'NONE', *, *, #162, .F. ) ;
#52 = APPROVAL_DATE_TIME ( #157, #203 ) ;
#53 = PERSON_AND_ORGANIZATION ( #194, #228 ) ;
#54 = DIRECTION ( 'NONE',  ( 3.491481338843133355E-15, -0.0000000000000000000, 1.000000000000000000 ) ) ;
#55 = LOCAL_TIME ( 7, 59, 38.00000000000000000, #226 ) ;
#56 = DIRECTION ( 'NONE',  ( 1.000000000000000000, 0.0000000000000000000, -3.373073425510458853E-15 ) ) ;
#57 = PLANE ( 'NONE',  #30 ) ;
#58 = CARTESIAN_POINT ( 'NONE',  ( 1.326762908760390423E-13, 0.0000000000000000000, 38.00000000000000000 ) ) ;
#59 = AXIS2_PLACEMENT_3D ( 'NONE', #12, #147, #33 ) ;
#60 = DIRECTION ( 'NONE',  ( 1.000000000000000000, 0.0000000000000000000, -3.373073425510458853E-15 ) ) ;
#61 = SECURITY_CLASSIFICATION_LEVEL ( 'unclassified' ) ;
#62 = COORDINATED_UNIVERSAL_TIME_OFFSET ( 1, 0, .AHEAD. ) ;
#63 = ADVANCED_FACE ( 'NONE', ( #90, #87 ), #238, .T. ) ;
#64 = DATE_AND_TIME ( #229, #55 ) ;
#65 = CC_DESIGN_PERSON_AND_ORGANIZATION_ASSIGNMENT ( #173, #152, ( #192 ) ) ;
#66 = AXIS2_PLACEMENT_3D ( 'NONE', #22, #43, #45 ) ;
#67 = EDGE_LOOP ( 'NONE', ( #156 ) ) ;
#68 = ORIENTED_EDGE ( 'NONE', *, *, #162, .T. ) ;
#69 = COORDINATED_UNIVERSAL_TIME_OFFSET ( 1, 0, .AHEAD. ) ;
#70 = EDGE_LOOP ( 'NONE', ( #177 ) ) ;
#71 = CARTESIAN_POINT ( 'NONE',  ( 4.713499807438230030E-15, 0.0000000000000000000, 1.349999999999999867 ) ) ;
#72 = CARTESIAN_POINT ( 'NONE',  ( 2.582992219738953330E-14, 0.0000000000000000000, 7.397983746906696467 ) ) ;
#73 = DIRECTION ( 'NONE',  ( 1.000000000000000000, 0.0000000000000000000, -3.491481338843133355E-15 ) ) ;
#74 = DIRECTION ( 'NONE',  ( -3.491481338843133355E-15, 0.0000000000000000000, -1.000000000000000000 ) ) ;
#75 = CARTESIAN_POINT ( 'NONE',  ( 1.312796983405018142E-13, 0.0000000000000000000, 37.60000000000000142 ) ) ;
#76 = CARTESIAN_POINT ( 'NONE',  ( 0.5181483474218668839, 0.0000000000000000000, 1.867638090205027135 ) ) ;
#77 = FACE_OUTER_BOUND ( 'NONE', #6, .T. ) ;
#78 = APPROVAL_ROLE ( '' ) ;
#79 = TOROIDAL_SURFACE ( 'NONE', #59, 2.450000000000000178, 2.000000000000000000 ) ;
#80 = LOCAL_TIME ( 7, 59, 38.00000000000000000, #31 ) ;
#81 = PRODUCT ( '334921', '334921', '', ( #211 ) ) ;
#82 = EDGE_LOOP ( 'NONE', ( #134 ) ) ;
#83 = AXIS2_PLACEMENT_3D ( 'NONE', #58, #74, #182 ) ;
#84 = FACE_OUTER_BOUND ( 'NONE', #199, .T. ) ;
#85 = DATE_AND_TIME ( #193, #171 ) ;
#86 = CARTESIAN_POINT ( 'NONE',  ( 1.326762908760390423E-13, 0.0000000000000000000, 38.00000000000000000 ) ) ;
#87 = FACE_OUTER_BOUND ( 'NONE', #120, .T. ) ;
#88 = VERTEX_POINT ( 'NONE', #164 ) ;
#89 = DIRECTION ( 'NONE',  ( 1.000000000000000000, 0.0000000000000000000, -3.491481338843133355E-15 ) ) ;
#90 = FACE_OUTER_BOUND ( 'NONE', #178, .T. ) ;
#91 = PERSON_AND_ORGANIZATION ( #194, #228 ) ;
#92 = AXIS2_PLACEMENT_3D ( 'NONE', #186, #16, #168 ) ;
#93 = AXIS2_PLACEMENT_3D ( 'NONE', #237, #32, #29 ) ;
#94 = APPROVAL ( #49, 'UNSPECIFIED' ) ;
#95 = APPLICATION_PROTOCOL_DEFINITION ( 'international standard', 'config_control_design', 1994, #137 ) ;
#96 = AXIS2_PLACEMENT_3D ( 'NONE', #123, #159, #89 ) ;
#97 = DATE_AND_TIME ( #190, #117 ) ;
#98 = EDGE_LOOP ( 'NONE', ( #26 ) ) ;
#99 =( NAMED_UNIT ( * ) PLANE_ANGLE_UNIT ( ) SI_UNIT ( $, .RADIAN. ) );
#100 = CARTESIAN_POINT ( 'NONE',  ( -9.831781012932406109E-37, 0.0000000000000000000, -2.815934000148506281E-22 ) ) ;
#101 = AXIS2_PLACEMENT_3D ( 'NONE', #103, #126, #35 ) ;
#102 = DIRECTION ( 'NONE',  ( -3.491481338843133355E-15, 0.0000000000000000000, -1.000000000000000000 ) ) ;
#103 = CARTESIAN_POINT ( 'NONE',  ( 0.0000000000000000000, 0.0000000000000000000, 0.0000000000000000000 ) ) ;
#104 = CARTESIAN_POINT ( 'NONE',  ( 2.000000000000026201, 0.0000000000000000000, 7.397983746906689362 ) ) ;
#105 = FACE_OUTER_BOUND ( 'NONE', #153, .T. ) ;
#106 = CC_DESIGN_PERSON_AND_ORGANIZATION_ASSIGNMENT ( #111, #116, ( #165 ) ) ;
#107 = FACE_BOUND ( 'NONE', #234, .T. ) ;
#108 = DIRECTION ( 'NONE',  ( -1.000000000000000000, 0.0000000000000000000, 3.491481338843133355E-15 ) ) ;
#109 = APPROVAL_DATE_TIME ( #97, #225 ) ;
#110 = PRODUCT_RELATED_PRODUCT_CATEGORY ( 'detail', '', ( #81 ) ) ;
#111 = PERSON_AND_ORGANIZATION ( #194, #228 ) ;
#112 = AXIS2_PLACEMENT_3D ( 'NONE', #71, #207, #56 ) ;
#113 = PERSON_AND_ORGANIZATION_ROLE ( 'design_owner' ) ;
#114 = AXIS2_PLACEMENT_3D ( 'NONE', #75, #9, #222 ) ;
#115 = DATE_AND_TIME ( #213, #13 ) ;
#116 = PERSON_AND_ORGANIZATION_ROLE ( 'classification_officer' ) ;
#117 = LOCAL_TIME ( 7, 59, 38.00000000000000000, #2 ) ;
#118 = ORIENTED_EDGE ( 'NONE', *, *, #140, .T. ) ;
#119 = CLOSED_SHELL ( 'NONE', ( #23, #121, #28 ) ) ;
#120 = EDGE_LOOP ( 'NONE', ( #122 ) ) ;
#121 = ADVANCED_FACE ( 'NONE', ( #105, #141 ), #15, .T. ) ;
#122 = ORIENTED_EDGE ( 'NONE', *, *, #46, .T. ) ;
#123 = CARTESIAN_POINT ( 'NONE',  ( 0.0000000000000000000, 0.0000000000000000000, 0.0000000000000000000 ) ) ;
#124 = AXIS2_PLACEMENT_3D ( 'NONE', #100, #54, #184 ) ;
#125 = CARTESIAN_POINT ( 'NONE',  ( 1.600000000000132871, 0.0000000000000000000, 37.99999999999999289 ) ) ;
#126 = DIRECTION ( 'NONE',  ( 3.491481338843133355E-15, -0.0000000000000000000, 1.000000000000000000 ) ) ;
#127 = ADVANCED_BREP_SHAPE_REPRESENTATION ( '334921', ( #151, #232, #66 ), #195 ) ;
#128 = FACE_OUTER_BOUND ( 'NONE', #214, .T. ) ;
#129 = CARTESIAN_POINT ( 'NONE',  ( 0.4500000000000046185, 0.0000000000000000000, 1.349999999999998312 ) ) ;
#130 = EDGE_CURVE ( 'NONE', #88, #88, #149, .T. ) ;
#131 = PERSON_AND_ORGANIZATION ( #194, #228 ) ;
#132 = PERSON_AND_ORGANIZATION ( #194, #228 ) ;
#133 = DATE_TIME_ROLE ( 'creation_date' ) ;
#134 = ORIENTED_EDGE ( 'NONE', *, *, #130, .T. ) ;
#135 = ADVANCED_FACE ( 'NONE', ( #179 ), #57, .T. ) ;
#136 = EDGE_LOOP ( 'NONE', ( #231 ) ) ;
#137 = APPLICATION_CONTEXT ( 'configuration controlled 3d designs of mechanical parts and assemblies' ) ;
#138 = EDGE_LOOP ( 'NONE', ( #158 ) ) ;
#139 = AXIS2_PLACEMENT_3D ( 'NONE', #202, #239, #38 ) ;
#140 = EDGE_CURVE ( 'NONE', #39, #39, #191, .T. ) ;
#141 = FACE_OUTER_BOUND ( 'NONE', #215, .T. ) ;
#142 = PLANE ( 'NONE',  #7 ) ;
#143 = APPROVAL_PERSON_ORGANIZATION ( #210, #94, #78 ) ;
#144 = FACE_OUTER_BOUND ( 'NONE', #136, .T. ) ;
#145 = ADVANCED_FACE ( 'NONE', ( #84, #163 ), #4, .T. ) ;
#146 = VERTEX_POINT ( 'NONE', #76 ) ;
#147 = DIRECTION ( 'NONE',  ( 3.491481338843133355E-15, -0.0000000000000000000, 1.000000000000000000 ) ) ;
#148 = DIRECTION ( 'NONE',  ( 1.000000000000000000, 0.0000000000000000000, -4.336808689942017736E-15 ) ) ;
#149 = CIRCLE ( 'NONE', #44, 0.4499999999999999001 ) ;
#150 = APPROVAL_DATE_TIME ( #115, #94 ) ;
#151 = MANIFOLD_SOLID_BREP ( 'Corps-Déplacer/Copier1[1]', #37 ) ;
#152 = PERSON_AND_ORGANIZATION_ROLE ( 'creator' ) ;
#153 = EDGE_LOOP ( 'NONE', ( #8 ) ) ;
#154 = CONICAL_SURFACE ( 'NONE', #92, 2.000000000000000000, 0.2617993877991428575 ) ;
#155 = CALENDAR_DATE ( 2021, 9, 11 ) ;
#156 = ORIENTED_EDGE ( 'NONE', *, *, #1, .T. ) ;
#157 = DATE_AND_TIME ( #155, #80 ) ;
#158 = ORIENTED_EDGE ( 'NONE', *, *, #41, .F. ) ;
#159 = DIRECTION ( 'NONE',  ( 3.491481338843133355E-15, -0.0000000000000000000, 1.000000000000000000 ) ) ;
#160 = DIRECTION ( 'NONE',  ( -1.000000000000000000, 0.0000000000000000000, 3.491481338843133355E-15 ) ) ;
#161 = VERTEX_POINT ( 'NONE', #125 ) ;
#162 = EDGE_CURVE ( 'NONE', #146, #146, #48, .T. ) ;
#163 = FACE_BOUND ( 'NONE', #70, .T. ) ;
#164 = CARTESIAN_POINT ( 'NONE',  ( 0.4500000000000046185, 0.0000000000000000000, 1.349999999999998312 ) ) ;
#165 = SECURITY_CLASSIFICATION ( '', '', #61 ) ;
#166 = DIRECTION ( 'NONE',  ( 3.491481338843133355E-15, -0.0000000000000000000, 1.000000000000000000 ) ) ;
#167 = VERTEX_POINT ( 'NONE', #206 ) ;
#168 = DIRECTION ( 'NONE',  ( 1.000000000000000000, 0.0000000000000000000, -3.469446951953614189E-15 ) ) ;
#169 = APPLICATION_CONTEXT ( 'configuration controlled 3d designs of mechanical parts and assemblies' ) ;
#170 = APPLICATION_PROTOCOL_DEFINITION ( 'international standard', 'config_control_design', 1994, #169 ) ;
#171 = LOCAL_TIME ( 7, 59, 38.00000000000000000, #69 ) ;
#172 = PERSON_AND_ORGANIZATION_ROLE ( 'creator' ) ;
#173 = PERSON_AND_ORGANIZATION ( #194, #228 ) ;
#174 = ADVANCED_FACE ( 'NONE', ( #107, #144 ), #154, .T. ) ;
#175 = CC_DESIGN_PERSON_AND_ORGANIZATION_ASSIGNMENT ( #91, #113, ( #81 ) ) ;
#176 = ORIENTED_EDGE ( 'NONE', *, *, #1, .F. ) ;
#177 = ORIENTED_EDGE ( 'NONE', *, *, #14, .F. ) ;
#178 = EDGE_LOOP ( 'NONE', ( #216 ) ) ;
#179 = FACE_OUTER_BOUND ( 'NONE', #98, .T. ) ;
#180 = APPROVAL_PERSON_ORGANIZATION ( #53, #203, #27 ) ;
#181 = AXIS2_PLACEMENT_3D ( 'NONE', #208, #200, #148 ) ;
#182 = DIRECTION ( 'NONE',  ( -1.000000000000000000, 0.0000000000000000000, 4.336808689942017736E-15 ) ) ;
#183 = CC_DESIGN_DATE_AND_TIME_ASSIGNMENT ( #64, #133, ( #192 ) ) ;
#184 = DIRECTION ( 'NONE',  ( 1.000000000000000000, 0.0000000000000000000, -3.491481338843133355E-15 ) ) ;
#185 = FACE_OUTER_BOUND ( 'NONE', #67, .T. ) ;
#186 = CARTESIAN_POINT ( 'NONE',  ( 2.582992219738953330E-14, 0.0000000000000000000, 7.397983746906696467 ) ) ;
#187 = CARTESIAN_POINT ( 'NONE',  ( 4.713499807438230818E-15, -1.463672932855430739E-16, 1.350000000000000089 ) ) ;
#188 = PRODUCT_DEFINITION_FORMATION_WITH_SPECIFIED_SOURCE ( 'ANY', '', #81, .NOT_KNOWN. ) ;
#189 = PERSON_AND_ORGANIZATION ( #194, #228 ) ;
#190 = CALENDAR_DATE ( 2021, 9, 11 ) ;
#191 = CIRCLE ( 'NONE', #114, 2.000000000000000000 ) ;
#192 = PRODUCT_DEFINITION ( 'UNKNOWN', '', #188, #10 ) ;
#193 = CALENDAR_DATE ( 2021, 9, 11 ) ;
#194 = PERSON ( 'UNSPECIFIED', 'UNSPECIFIED', 'UNSPECIFIED', ('UNSPECIFIED'), ('UNSPECIFIED'), ('UNSPECIFIED') ) ;
#195 =( GEOMETRIC_REPRESENTATION_CONTEXT ( 3 ) GLOBAL_UNCERTAINTY_ASSIGNED_CONTEXT ( ( #227 ) ) GLOBAL_UNIT_ASSIGNED_CONTEXT ( ( #42, #99, #240 ) ) REPRESENTATION_CONTEXT ( 'NONE', 'WORKASPACE' ) );
#196 = CC_DESIGN_SECURITY_CLASSIFICATION ( #165, ( #188 ) ) ;
#197 = ORIENTED_EDGE ( 'NONE', *, *, #130, .F. ) ;
#198 = CC_DESIGN_PERSON_AND_ORGANIZATION_ASSIGNMENT ( #189, #172, ( #188 ) ) ;
#199 = EDGE_LOOP ( 'NONE', ( #118 ) ) ;
#200 = DIRECTION ( 'NONE',  ( 3.491481338843133355E-15, -0.0000000000000000000, 1.000000000000000000 ) ) ;
#201 = APPROVAL_PERSON_ORGANIZATION ( #132, #225, #47 ) ;
#202 = CARTESIAN_POINT ( 'NONE',  ( 6.520823539663486410E-15, 0.0000000000000000000, 1.867638090205028689 ) ) ;
#203 = APPROVAL ( #217, 'UNSPECIFIED' ) ;
#204 = CIRCLE ( 'NONE', #181, 1.600000000000000089 ) ;
#205 = DIRECTION ( 'NONE',  ( 1.000000000000000000, 0.0000000000000000000, -3.469446951953614189E-15 ) ) ;
#206 = CARTESIAN_POINT ( 'NONE',  ( 0.4499999999999999001, 0.0000000000000000000, -1.571166884072809592E-15 ) ) ;
#207 = DIRECTION ( 'NONE',  ( 3.491481338843133355E-15, -0.0000000000000000000, 1.000000000000000000 ) ) ;
#208 = CARTESIAN_POINT ( 'NONE',  ( 1.326762908760390423E-13, 0.0000000000000000000, 38.00000000000000000 ) ) ;
#209 = DIRECTION ( 'NONE',  ( -3.491481338843133355E-15, 0.0000000000000000000, -1.000000000000000000 ) ) ;
#210 = PERSON_AND_ORGANIZATION ( #194, #228 ) ;
#211 = MECHANICAL_CONTEXT ( 'NONE', #137, 'mechanical' ) ;
#212 = APPROVAL_STATUS ( 'not_yet_approved' ) ;
#213 = CALENDAR_DATE ( 2021, 9, 11 ) ;
#214 = EDGE_LOOP ( 'NONE', ( #51 ) ) ;
#215 = EDGE_LOOP ( 'NONE', ( #197 ) ) ;
#216 = ORIENTED_EDGE ( 'NONE', *, *, #140, .F. ) ;
#217 = APPROVAL_STATUS ( 'not_yet_approved' ) ;
#218 = FACE_OUTER_BOUND ( 'NONE', #82, .T. ) ;
#219 = FACE_OUTER_BOUND ( 'NONE', #138, .T. ) ;
#220 = CC_DESIGN_APPROVAL ( #94, ( #188 ) ) ;
#221 = PLANE ( 'NONE',  #93 ) ;
#222 = DIRECTION ( 'NONE',  ( 1.000000000000000000, 0.0000000000000000000, -3.469446951953614189E-15 ) ) ;
#223 = CARTESIAN_POINT ( 'NONE',  ( 4.713499807438230818E-15, -1.463672932855430739E-16, 1.350000000000000089 ) ) ;
#224 = PERSON_AND_ORGANIZATION_ROLE ( 'design_supplier' ) ;
#225 = APPROVAL ( #212, 'UNSPECIFIED' ) ;
#226 = COORDINATED_UNIVERSAL_TIME_OFFSET ( 1, 0, .AHEAD. ) ;
#227 = UNCERTAINTY_MEASURE_WITH_UNIT (LENGTH_MEASURE( 1.000000000000000082E-05 ), #42, 'distance_accuracy_value', 'NONE');
#228 = ORGANIZATION ( 'UNSPECIFIED', 'UNSPECIFIED', '' ) ;
#229 = CALENDAR_DATE ( 2021, 9, 11 ) ;
#230 = CIRCLE ( 'NONE', #124, 0.4499999999999999001 ) ;
#231 = ORIENTED_EDGE ( 'NONE', *, *, #46, .F. ) ;
#232 = MANIFOLD_SOLID_BREP ( 'Corps-Déplacer/Copier1[2]', #119 ) ;
#233 = AXIS2_PLACEMENT_3D ( 'NONE', #72, #11, #205 ) ;
#234 = EDGE_LOOP ( 'NONE', ( #68 ) ) ;
#235 = ADVANCED_FACE ( 'NONE', ( #77 ), #40, .T. ) ;
#236 = DATE_TIME_ROLE ( 'classification_date' ) ;
#237 = CARTESIAN_POINT ( 'NONE',  ( -4.915890506466203054E-37, 0.0000000000000000000, -1.407967000074253141E-22 ) ) ;
#238 = CYLINDRICAL_SURFACE ( 'NONE', #101, 2.000000000000000000 ) ;
#239 = DIRECTION ( 'NONE',  ( 3.491481338843133355E-15, -0.0000000000000000000, 1.000000000000000000 ) ) ;
#240 =( NAMED_UNIT ( * ) SI_UNIT ( $, .STERADIAN. ) SOLID_ANGLE_UNIT ( ) );
#241 = CARTESIAN_POINT ( 'NONE',  ( 2.000000000000131450, 0.0000000000000000000, 37.59999999999999432 ) ) ;
#242 = DIRECTION ( 'NONE',  ( 3.491481338843133355E-15, -0.0000000000000000000, 1.000000000000000000 ) ) ;
#243 = CARTESIAN_POINT ( 'NONE',  ( 4.713499807438230030E-15, 0.0000000000000000000, 1.349999999999999867 ) ) ;
ENDSEC;
END-ISO-10303-21;
