ISO-10303-21;
HEADER;
FILE_DESCRIPTION (( 'STEP AP203' ),
    '1' );
FILE_NAME ('334920.step',
    '2021-11-09T06:59:38',
    ( '' ),
    ( '' ),
    'SwSTEP 2.0',
    'SolidWorks 2019',
    '' );
FILE_SCHEMA (( 'CONFIG_CONTROL_DESIGN' ));
ENDSEC;

DATA;
#1 = ADVANCED_FACE ( 'NONE', ( #179, #10 ), #172, .T. ) ;
#2 = APPROVAL_ROLE ( '' ) ;
#3 = APPROVAL_PERSON_ORGANIZATION ( #195, #29, #238 ) ;
#4 = AXIS2_PLACEMENT_3D ( 'NONE', #169, #111, #167 ) ;
#5 = MANIFOLD_SOLID_BREP ( 'Corps-Déplacer/Copier1[1]', #8 ) ;
#6 = AXIS2_PLACEMENT_3D ( 'NONE', #204, #163, #106 ) ;
#7 = ORIENTED_EDGE ( 'NONE', *, *, #145, .T. ) ;
#8 = CLOSED_SHELL ( 'NONE', ( #166, #70, #126, #44, #237, #34 ) ) ;
#9 = COORDINATED_UNIVERSAL_TIME_OFFSET ( 1, 0, .AHEAD. ) ;
#10 = FACE_OUTER_BOUND ( 'NONE', #72, .T. ) ;
#11 = SECURITY_CLASSIFICATION ( '', '', #162 ) ;
#12 = EDGE_LOOP ( 'NONE', ( #7 ) ) ;
#13 = FACE_OUTER_BOUND ( 'NONE', #55, .T. ) ;
#14 = DIRECTION ( 'NONE',  ( -3.491481338843133355E-15, 0.0000000000000000000, -1.000000000000000000 ) ) ;
#15 = FACE_OUTER_BOUND ( 'NONE', #199, .T. ) ;
#16 = AXIS2_PLACEMENT_3D ( 'NONE', #240, #152, #221 ) ;
#17 = APPROVAL ( #156, 'UNSPECIFIED' ) ;
#18 = DIRECTION ( 'NONE',  ( 3.491481338843133355E-15, -0.0000000000000000000, 1.000000000000000000 ) ) ;
#19 = FACE_OUTER_BOUND ( 'NONE', #215, .T. ) ;
#20 = CARTESIAN_POINT ( 'NONE',  ( 2.595771928407513653E-14, 0.0000000000000000000, 7.434586287285144479 ) ) ;
#21 = APPROVAL ( #23, 'UNSPECIFIED' ) ;
#22 = LOCAL_TIME ( 7, 59, 38.00000000000000000, #141 ) ;
#23 = APPROVAL_STATUS ( 'not_yet_approved' ) ;
#24 = AXIS2_PLACEMENT_3D ( 'NONE', #108, #42, #89 ) ;
#25 = PERSON_AND_ORGANIZATION ( #26, #97 ) ;
#26 = PERSON ( 'UNSPECIFIED', 'UNSPECIFIED', 'UNSPECIFIED', ('UNSPECIFIED'), ('UNSPECIFIED'), ('UNSPECIFIED') ) ;
#27 = CIRCLE ( 'NONE', #222, 1.600000000000000089 ) ;
#28 = EDGE_LOOP ( 'NONE', ( #178 ) ) ;
#29 = APPROVAL ( #57, 'UNSPECIFIED' ) ;
#30 = PERSON_AND_ORGANIZATION ( #26, #97 ) ;
#31 = ORIENTED_EDGE ( 'NONE', *, *, #150, .T. ) ;
#32 = LOCAL_TIME ( 7, 59, 38.00000000000000000, #9 ) ;
#33 = APPROVAL_DATE_TIME ( #161, #29 ) ;
#34 = ADVANCED_FACE ( 'NONE', ( #13 ), #131, .T. ) ;
#35 = DIRECTION ( 'NONE',  ( 1.000000000000000000, 0.0000000000000000000, -3.491481338843133355E-15 ) ) ;
#36 = PERSON_AND_ORGANIZATION_ROLE ( 'classification_officer' ) ;
#37 = CARTESIAN_POINT ( 'NONE',  ( 5.997101338837015618E-15, 0.0000000000000000000, 1.717638090205028334 ) ) ;
#38 = DIRECTION ( 'NONE',  ( -1.000000000000000000, 0.0000000000000000000, 3.491481338843133355E-15 ) ) ;
#39 = VERTEX_POINT ( 'NONE', #151 ) ;
#40 = FACE_BOUND ( 'NONE', #234, .T. ) ;
#41 = AXIS2_PLACEMENT_3D ( 'NONE', #77, #218, #60 ) ;
#42 = DIRECTION ( 'NONE',  ( 3.491481338843133355E-15, -0.0000000000000000000, 1.000000000000000000 ) ) ;
#43 = DIRECTION ( 'NONE',  ( 3.491481338843133355E-15, -0.0000000000000000000, 1.000000000000000000 ) ) ;
#44 = ADVANCED_FACE ( 'NONE', ( #200, #19 ), #130, .F. ) ;
#45 = CC_DESIGN_SECURITY_CLASSIFICATION ( #11, ( #168 ) ) ;
#46 = CARTESIAN_POINT ( 'NONE',  ( 0.4000000000000043521, 0.0000000000000000000, 1.199999999999998179 ) ) ;
#47 = DATE_TIME_ROLE ( 'creation_date' ) ;
#48 = CIRCLE ( 'NONE', #6, 2.000000000000000000 ) ;
#49 = APPROVAL_DATE_TIME ( #210, #21 ) ;
#50 = MECHANICAL_CONTEXT ( 'NONE', #105, 'mechanical' ) ;
#51 = CALENDAR_DATE ( 2021, 9, 11 ) ;
#52 = EDGE_CURVE ( 'NONE', #208, #208, #48, .T. ) ;
#53 = ORIENTED_EDGE ( 'NONE', *, *, #150, .F. ) ;
#54 = LOCAL_TIME ( 7, 59, 38.00000000000000000, #227 ) ;
#55 = EDGE_LOOP ( 'NONE', ( #76 ) ) ;
#56 = DATE_AND_TIME ( #74, #119 ) ;
#57 = APPROVAL_STATUS ( 'not_yet_approved' ) ;
#58 = UNCERTAINTY_MEASURE_WITH_UNIT (LENGTH_MEASURE( 1.000000000000000082E-05 ), #95, 'distance_accuracy_value', 'NONE');
#59 = EDGE_LOOP ( 'NONE', ( #213 ) ) ;
#60 = DIRECTION ( 'NONE',  ( -1.000000000000000000, 0.0000000000000000000, 4.336808689942017736E-15 ) ) ;
#61 = CONICAL_SURFACE ( 'NONE', #41, 1.600000000000000089, 0.7853981633974512766 ) ;
#62 = DIRECTION ( 'NONE',  ( 1.000000000000000000, 0.0000000000000000000, -3.491481338843133355E-15 ) ) ;
#63 = PLANE ( 'NONE',  #16 ) ;
#64 = DIRECTION ( 'NONE',  ( -3.491481338843133355E-15, 0.0000000000000000000, -1.000000000000000000 ) ) ;
#65 = DIRECTION ( 'NONE',  ( 3.491481338843133355E-15, -0.0000000000000000000, 1.000000000000000000 ) ) ;
#66 = CALENDAR_DATE ( 2021, 9, 11 ) ;
#67 = PERSON_AND_ORGANIZATION ( #26, #97 ) ;
#68 = CC_DESIGN_PERSON_AND_ORGANIZATION_ASSIGNMENT ( #173, #192, ( #125 ) ) ;
#69 = APPROVAL_ROLE ( '' ) ;
#70 = ADVANCED_FACE ( 'NONE', ( #239, #40 ), #61, .T. ) ;
#71 = AXIS2_PLACEMENT_3D ( 'NONE', #223, #65, #128 ) ;
#72 = EDGE_LOOP ( 'NONE', ( #194 ) ) ;
#73 = PRODUCT_DEFINITION_SHAPE ( 'NONE', 'NONE',  #175 ) ;
#74 = CALENDAR_DATE ( 2021, 9, 11 ) ;
#75 = EDGE_LOOP ( 'NONE', ( #160 ) ) ;
#76 = ORIENTED_EDGE ( 'NONE', *, *, #183, .F. ) ;
#77 = CARTESIAN_POINT ( 'NONE',  ( 1.326762908760390423E-13, 0.0000000000000000000, 38.00000000000000000 ) ) ;
#78 = CC_DESIGN_DATE_AND_TIME_ASSIGNMENT ( #138, #47, ( #175 ) ) ;
#79 = DIRECTION ( 'NONE',  ( 3.491481338843133355E-15, -0.0000000000000000000, 1.000000000000000000 ) ) ;
#80 = DIRECTION ( 'NONE',  ( 3.491481338843133355E-15, -0.0000000000000000000, 1.000000000000000000 ) ) ;
#81 = DIRECTION ( 'NONE',  ( -1.000000000000000000, 0.0000000000000000000, 3.491481338843133355E-15 ) ) ;
#82 = VERTEX_POINT ( 'NONE', #46 ) ;
#83 = DIRECTION ( 'NONE',  ( 3.491481338843133355E-15, -0.0000000000000000000, 1.000000000000000000 ) ) ;
#84 =( GEOMETRIC_REPRESENTATION_CONTEXT ( 3 ) GLOBAL_UNCERTAINTY_ASSIGNED_CONTEXT ( ( #58 ) ) GLOBAL_UNIT_ASSIGNED_CONTEXT ( ( #95, #235, #174 ) ) REPRESENTATION_CONTEXT ( 'NONE', 'WORKASPACE' ) );
#85 = PERSON_AND_ORGANIZATION_ROLE ( 'creator' ) ;
#86 = CIRCLE ( 'NONE', #148, 0.4000000000000001887 ) ;
#87 = CALENDAR_DATE ( 2021, 9, 11 ) ;
#88 = CONICAL_SURFACE ( 'NONE', #116, 2.000000000000000000, 0.2617993877991428020 ) ;
#89 = DIRECTION ( 'NONE',  ( 1.000000000000000000, 0.0000000000000000000, -3.491481338843133750E-15 ) ) ;
#90 = MANIFOLD_SOLID_BREP ( 'Corps-Déplacer/Copier1[2]', #181 ) ;
#91 = PERSON_AND_ORGANIZATION_ROLE ( 'design_supplier' ) ;
#92 = DIRECTION ( 'NONE',  ( 1.000000000000000000, 0.0000000000000000000, -3.252606517456511724E-15 ) ) ;
#93 = PLANE ( 'NONE',  #190 ) ;
#94 = CIRCLE ( 'NONE', #102, 2.000000000000000000 ) ;
#95 =( LENGTH_UNIT ( ) NAMED_UNIT ( * ) SI_UNIT ( .MILLI., .METRE. ) );
#96 = CARTESIAN_POINT ( 'NONE',  ( 2.595771928407513653E-14, 0.0000000000000000000, 7.434586287285144479 ) ) ;
#97 = ORGANIZATION ( 'UNSPECIFIED', 'UNSPECIFIED', '' ) ;
#98 = DIRECTION ( 'NONE',  ( 0.0000000000000000000, 0.0000000000000000000, 1.000000000000000000 ) ) ;
#99 = AXIS2_PLACEMENT_3D ( 'NONE', #217, #14, #38 ) ;
#100 = ADVANCED_FACE ( 'NONE', ( #15 ), #93, .F. ) ;
#101 = CARTESIAN_POINT ( 'NONE',  ( 0.0000000000000000000, 0.0000000000000000000, 0.0000000000000000000 ) ) ;
#102 = AXIS2_PLACEMENT_3D ( 'NONE', #96, #80, #149 ) ;
#103 = PERSON_AND_ORGANIZATION ( #26, #97 ) ;
#104 = ORIENTED_EDGE ( 'NONE', *, *, #110, .T. ) ;
#105 = APPLICATION_CONTEXT ( 'configuration controlled 3d designs of mechanical parts and assemblies' ) ;
#106 = DIRECTION ( 'NONE',  ( 1.000000000000000000, 0.0000000000000000000, -3.469446951953614189E-15 ) ) ;
#107 = DIRECTION ( 'NONE',  ( 1.000000000000000000, 0.0000000000000000000, -3.705499518539585800E-15 ) ) ;
#108 = CARTESIAN_POINT ( 'NONE',  ( 4.189777606611758449E-15, 0.0000000000000000000, 1.199999999999999734 ) ) ;
#109 = FACE_OUTER_BOUND ( 'NONE', #142, .T. ) ;
#110 = EDGE_CURVE ( 'NONE', #209, #209, #86, .T. ) ;
#111 = DIRECTION ( 'NONE',  ( 3.491481338843133355E-15, -0.0000000000000000000, 1.000000000000000000 ) ) ;
#112 = DIRECTION ( 'NONE',  ( 1.000000000000000000, 0.0000000000000000000, -3.469446951953614189E-15 ) ) ;
#113 = CARTESIAN_POINT ( 'NONE',  ( 0.4681483474218666729, 0.0000000000000000000, 1.717638090205026780 ) ) ;
#114 = CC_DESIGN_DATE_AND_TIME_ASSIGNMENT ( #56, #122, ( #11 ) ) ;
#115 = PERSON_AND_ORGANIZATION ( #26, #97 ) ;
#116 = AXIS2_PLACEMENT_3D ( 'NONE', #20, #43, #112 ) ;
#117 = DATE_AND_TIME ( #51, #22 ) ;
#118 = ORIENTED_EDGE ( 'NONE', *, *, #52, .T. ) ;
#119 = LOCAL_TIME ( 7, 59, 38.00000000000000000, #159 ) ;
#120 = ORIENTED_EDGE ( 'NONE', *, *, #193, .F. ) ;
#121 = ADVANCED_BREP_SHAPE_REPRESENTATION ( '334920', ( #5, #90, #201 ), #84 ) ;
#122 = DATE_TIME_ROLE ( 'classification_date' ) ;
#123 = CIRCLE ( 'NONE', #236, 0.4000000000000001887 ) ;
#124 = LOCAL_TIME ( 7, 59, 38.00000000000000000, #225 ) ;
#125 = PRODUCT ( '334920', '334920', '', ( #50 ) ) ;
#126 = ADVANCED_FACE ( 'NONE', ( #109 ), #180, .T. ) ;
#127 = EDGE_LOOP ( 'NONE', ( #212 ) ) ;
#128 = DIRECTION ( 'NONE',  ( 1.000000000000000000, 0.0000000000000000000, -3.491481338843133355E-15 ) ) ;
#129 = AXIS2_PLACEMENT_3D ( 'NONE', #37, #242, #107 ) ;
#130 = TOROIDAL_SURFACE ( 'NONE', #24, 2.400000000000000799, 2.000000000000000000 ) ;
#131 = PLANE ( 'NONE',  #99 ) ;
#132 = CARTESIAN_POINT ( 'NONE',  ( 2.000000000000026201, 0.0000000000000000000, 7.434586287285137374 ) ) ;
#133 = FACE_BOUND ( 'NONE', #28, .T. ) ;
#134 = CARTESIAN_POINT ( 'NONE',  ( 1.326762908760390423E-13, 0.0000000000000000000, 38.00000000000000000 ) ) ;
#135 = APPLICATION_CONTEXT ( 'configuration controlled 3d designs of mechanical parts and assemblies' ) ;
#136 = FACE_OUTER_BOUND ( 'NONE', #230, .T. ) ;
#137 = CC_DESIGN_PERSON_AND_ORGANIZATION_ASSIGNMENT ( #25, #91, ( #168 ) ) ;
#138 = DATE_AND_TIME ( #66, #124 ) ;
#139 = CALENDAR_DATE ( 2021, 9, 11 ) ;
#140 = DIRECTION ( 'NONE',  ( 1.000000000000000000, 0.0000000000000000000, 0.0000000000000000000 ) ) ;
#141 = COORDINATED_UNIVERSAL_TIME_OFFSET ( 1, 0, .AHEAD. ) ;
#142 = EDGE_LOOP ( 'NONE', ( #144 ) ) ;
#143 = EDGE_LOOP ( 'NONE', ( #118 ) ) ;
#144 = ORIENTED_EDGE ( 'NONE', *, *, #233, .T. ) ;
#145 = EDGE_CURVE ( 'NONE', #170, #170, #228, .T. ) ;
#146 = CARTESIAN_POINT ( 'NONE',  ( 4.189777606611757660E-15, 0.0000000000000000000, 1.199999999999999512 ) ) ;
#147 = DIRECTION ( 'NONE',  ( 1.000000000000000000, 0.0000000000000000000, -4.336808689942017736E-15 ) ) ;
#148 = AXIS2_PLACEMENT_3D ( 'NONE', #146, #18, #206 ) ;
#149 = DIRECTION ( 'NONE',  ( 1.000000000000000000, 0.0000000000000000000, -3.469446951953614189E-15 ) ) ;
#150 = EDGE_CURVE ( 'NONE', #187, #187, #94, .T. ) ;
#151 = CARTESIAN_POINT ( 'NONE',  ( 1.600000000000132871, 0.0000000000000000000, 37.99999999999999289 ) ) ;
#152 = DIRECTION ( 'NONE',  ( -3.491481338843133355E-15, 0.0000000000000000000, -1.000000000000000000 ) ) ;
#153 = CYLINDRICAL_SURFACE ( 'NONE', #71, 2.000000000000000000 ) ;
#154 = CIRCLE ( 'NONE', #129, 0.4681483474218606222 ) ;
#155 = APPROVAL_DATE_TIME ( #117, #17 ) ;
#156 = APPROVAL_STATUS ( 'not_yet_approved' ) ;
#157 = CC_DESIGN_APPROVAL ( #21, ( #168 ) ) ;
#158 = CC_DESIGN_APPROVAL ( #17, ( #175 ) ) ;
#159 = COORDINATED_UNIVERSAL_TIME_OFFSET ( 1, 0, .AHEAD. ) ;
#160 = ORIENTED_EDGE ( 'NONE', *, *, #145, .F. ) ;
#161 = DATE_AND_TIME ( #87, #32 ) ;
#162 = SECURITY_CLASSIFICATION_LEVEL ( 'unclassified' ) ;
#163 = DIRECTION ( 'NONE',  ( 3.491481338843133355E-15, -0.0000000000000000000, 1.000000000000000000 ) ) ;
#164 = FACE_OUTER_BOUND ( 'NONE', #75, .T. ) ;
#165 = CARTESIAN_POINT ( 'NONE',  ( 0.4000000000000001887, 0.0000000000000000000, -1.396592817130653910E-15 ) ) ;
#166 = ADVANCED_FACE ( 'NONE', ( #220, #182 ), #153, .T. ) ;
#167 = DIRECTION ( 'NONE',  ( 1.000000000000000000, 0.0000000000000000000, -3.491481338843133355E-15 ) ) ;
#168 = PRODUCT_DEFINITION_FORMATION_WITH_SPECIFIED_SOURCE ( 'ANY', '', #125, .NOT_KNOWN. ) ;
#169 = CARTESIAN_POINT ( 'NONE',  ( -9.831781012932406109E-37, 0.0000000000000000000, -2.815934000148506281E-22 ) ) ;
#170 = VERTEX_POINT ( 'NONE', #165 ) ;
#171 = CC_DESIGN_APPROVAL ( #29, ( #11 ) ) ;
#172 = CYLINDRICAL_SURFACE ( 'NONE', #232, 0.4000000000000001887 ) ;
#173 = PERSON_AND_ORGANIZATION ( #26, #97 ) ;
#174 =( NAMED_UNIT ( * ) SI_UNIT ( $, .STERADIAN. ) SOLID_ANGLE_UNIT ( ) );
#175 = PRODUCT_DEFINITION ( 'UNKNOWN', '', #168, #224 ) ;
#176 = ORIENTED_EDGE ( 'NONE', *, *, #233, .F. ) ;
#177 = CC_DESIGN_PERSON_AND_ORGANIZATION_ASSIGNMENT ( #30, #36, ( #11 ) ) ;
#178 = ORIENTED_EDGE ( 'NONE', *, *, #193, .T. ) ;
#179 = FACE_OUTER_BOUND ( 'NONE', #12, .T. ) ;
#180 = PLANE ( 'NONE',  #197 ) ;
#181 = CLOSED_SHELL ( 'NONE', ( #198, #1, #100 ) ) ;
#182 = FACE_OUTER_BOUND ( 'NONE', #196, .T. ) ;
#183 = EDGE_CURVE ( 'NONE', #82, #82, #123, .T. ) ;
#184 = CARTESIAN_POINT ( 'NONE',  ( 4.189777606611758449E-15, -1.301042606982605074E-16, 1.199999999999999734 ) ) ;
#185 = DIRECTION ( 'NONE',  ( 3.491481338843133355E-15, -0.0000000000000000000, 1.000000000000000000 ) ) ;
#186 = DIRECTION ( 'NONE',  ( 3.491481338843133355E-15, -0.0000000000000000000, 1.000000000000000000 ) ) ;
#187 = VERTEX_POINT ( 'NONE', #132 ) ;
#188 = CARTESIAN_POINT ( 'NONE',  ( 2.000000000000131450, 0.0000000000000000000, 37.59999999999999432 ) ) ;
#189 = PERSON_AND_ORGANIZATION ( #26, #97 ) ;
#190 = AXIS2_PLACEMENT_3D ( 'NONE', #184, #64, #81 ) ;
#191 = PERSON_AND_ORGANIZATION_ROLE ( 'creator' ) ;
#192 = PERSON_AND_ORGANIZATION_ROLE ( 'design_owner' ) ;
#193 = EDGE_CURVE ( 'NONE', #205, #205, #154, .T. ) ;
#194 = ORIENTED_EDGE ( 'NONE', *, *, #110, .F. ) ;
#195 = PERSON_AND_ORGANIZATION ( #26, #97 ) ;
#196 = EDGE_LOOP ( 'NONE', ( #31 ) ) ;
#197 = AXIS2_PLACEMENT_3D ( 'NONE', #243, #83, #35 ) ;
#198 = ADVANCED_FACE ( 'NONE', ( #164 ), #63, .T. ) ;
#199 = EDGE_LOOP ( 'NONE', ( #104 ) ) ;
#200 = FACE_OUTER_BOUND ( 'NONE', #127, .T. ) ;
#201 = AXIS2_PLACEMENT_3D ( 'NONE', #101, #98, #140 ) ;
#202 = CARTESIAN_POINT ( 'NONE',  ( 4.189777606611757660E-15, 0.0000000000000000000, 1.199999999999999512 ) ) ;
#203 = CC_DESIGN_PERSON_AND_ORGANIZATION_ASSIGNMENT ( #115, #191, ( #168 ) ) ;
#204 = CARTESIAN_POINT ( 'NONE',  ( 1.312796983405018142E-13, 0.0000000000000000000, 37.60000000000000142 ) ) ;
#205 = VERTEX_POINT ( 'NONE', #113 ) ;
#206 = DIRECTION ( 'NONE',  ( 1.000000000000000000, 0.0000000000000000000, -3.252606517456511724E-15 ) ) ;
#207 = CARTESIAN_POINT ( 'NONE',  ( 0.0000000000000000000, 0.0000000000000000000, 0.0000000000000000000 ) ) ;
#208 = VERTEX_POINT ( 'NONE', #188 ) ;
#209 = VERTEX_POINT ( 'NONE', #241 ) ;
#210 = DATE_AND_TIME ( #139, #54 ) ;
#211 = APPLICATION_PROTOCOL_DEFINITION ( 'international standard', 'config_control_design', 1994, #135 ) ;
#212 = ORIENTED_EDGE ( 'NONE', *, *, #183, .T. ) ;
#213 = ORIENTED_EDGE ( 'NONE', *, *, #52, .F. ) ;
#214 = PRODUCT_RELATED_PRODUCT_CATEGORY ( 'detail', '', ( #125 ) ) ;
#215 = EDGE_LOOP ( 'NONE', ( #120 ) ) ;
#216 = SHAPE_DEFINITION_REPRESENTATION ( #73, #121 ) ;
#217 = CARTESIAN_POINT ( 'NONE',  ( 4.189777606611758449E-15, -1.301042606982605074E-16, 1.199999999999999734 ) ) ;
#218 = DIRECTION ( 'NONE',  ( -3.491481338843133355E-15, 0.0000000000000000000, -1.000000000000000000 ) ) ;
#219 = APPROVAL_PERSON_ORGANIZATION ( #189, #21, #2 ) ;
#220 = FACE_OUTER_BOUND ( 'NONE', #59, .T. ) ;
#221 = DIRECTION ( 'NONE',  ( -1.000000000000000000, 0.0000000000000000000, 3.491481338843133355E-15 ) ) ;
#222 = AXIS2_PLACEMENT_3D ( 'NONE', #134, #79, #147 ) ;
#223 = CARTESIAN_POINT ( 'NONE',  ( 0.0000000000000000000, 0.0000000000000000000, 0.0000000000000000000 ) ) ;
#224 = DESIGN_CONTEXT ( 'detailed design', #135, 'design' ) ;
#225 = COORDINATED_UNIVERSAL_TIME_OFFSET ( 1, 0, .AHEAD. ) ;
#226 = CC_DESIGN_PERSON_AND_ORGANIZATION_ASSIGNMENT ( #67, #85, ( #175 ) ) ;
#227 = COORDINATED_UNIVERSAL_TIME_OFFSET ( 1, 0, .AHEAD. ) ;
#228 = CIRCLE ( 'NONE', #4, 0.4000000000000001887 ) ;
#229 = APPLICATION_PROTOCOL_DEFINITION ( 'international standard', 'config_control_design', 1994, #105 ) ;
#230 = EDGE_LOOP ( 'NONE', ( #53 ) ) ;
#231 = APPROVAL_PERSON_ORGANIZATION ( #103, #17, #69 ) ;
#232 = AXIS2_PLACEMENT_3D ( 'NONE', #207, #185, #62 ) ;
#233 = EDGE_CURVE ( 'NONE', #39, #39, #27, .T. ) ;
#234 = EDGE_LOOP ( 'NONE', ( #176 ) ) ;
#235 =( NAMED_UNIT ( * ) PLANE_ANGLE_UNIT ( ) SI_UNIT ( $, .RADIAN. ) );
#236 = AXIS2_PLACEMENT_3D ( 'NONE', #202, #186, #92 ) ;
#237 = ADVANCED_FACE ( 'NONE', ( #133, #136 ), #88, .T. ) ;
#238 = APPROVAL_ROLE ( '' ) ;
#239 = FACE_OUTER_BOUND ( 'NONE', #143, .T. ) ;
#240 = CARTESIAN_POINT ( 'NONE',  ( -4.915890506466203054E-37, 0.0000000000000000000, -1.407967000074253141E-22 ) ) ;
#241 = CARTESIAN_POINT ( 'NONE',  ( 0.4000000000000043521, 0.0000000000000000000, 1.199999999999998179 ) ) ;
#242 = DIRECTION ( 'NONE',  ( 3.491481338843133355E-15, -0.0000000000000000000, 1.000000000000000000 ) ) ;
#243 = CARTESIAN_POINT ( 'NONE',  ( 1.326762908760390423E-13, 0.0000000000000000000, 38.00000000000000000 ) ) ;
ENDSEC;
END-ISO-10303-21;
