ISO-10303-21;
HEADER;
FILE_DESCRIPTION (( 'STEP AP203' ),
    '1' );
FILE_NAME ('334919.step',
    '2021-11-09T06:59:37',
    ( '' ),
    ( '' ),
    'SwSTEP 2.0',
    'SolidWorks 2019',
    '' );
FILE_SCHEMA (( 'CONFIG_CONTROL_DESIGN' ));
ENDSEC;

DATA;
#1 = CC_DESIGN_PERSON_AND_ORGANIZATION_ASSIGNMENT ( #208, #44, ( #188 ) ) ;
#2 = CIRCLE ( 'NONE', #180, 0.4181483474218600782 ) ;
#3 = DIRECTION ( 'NONE',  ( 1.000000000000000000, 0.0000000000000000000, 0.0000000000000000000 ) ) ;
#4 = APPROVAL_PERSON_ORGANIZATION ( #149, #78, #185 ) ;
#5 = CARTESIAN_POINT ( 'NONE',  ( 0.3500000000000037526, 0.0000000000000000000, 1.049999999999998712 ) ) ;
#6 = AXIS2_PLACEMENT_3D ( 'NONE', #211, #93, #187 ) ;
#7 = CARTESIAN_POINT ( 'NONE',  ( 0.3500000000000000333, 0.0000000000000000000, -1.222018750188496848E-15 ) ) ;
#8 = DIRECTION ( 'NONE',  ( 3.491481338843133355E-15, -0.0000000000000000000, 1.000000000000000000 ) ) ;
#9 = PERSON_AND_ORGANIZATION ( #31, #67 ) ;
#10 = PERSON_AND_ORGANIZATION ( #31, #67 ) ;
#11 = ORIENTED_EDGE ( 'NONE', *, *, #47, .T. ) ;
#12 = APPROVAL_DATE_TIME ( #117, #78 ) ;
#13 = DIRECTION ( 'NONE',  ( -1.000000000000000000, 0.0000000000000000000, 4.336808689942017736E-15 ) ) ;
#14 = FACE_OUTER_BOUND ( 'NONE', #72, .T. ) ;
#15 = CC_DESIGN_APPROVAL ( #78, ( #196 ) ) ;
#16 = CARTESIAN_POINT ( 'NONE',  ( -4.915890506466203054E-37, 0.0000000000000000000, -1.407967000074253141E-22 ) ) ;
#17 = UNCERTAINTY_MEASURE_WITH_UNIT (LENGTH_MEASURE( 1.000000000000000082E-05 ), #24, 'distance_accuracy_value', 'NONE');
#18 = CONICAL_SURFACE ( 'NONE', #147, 2.000000000000000000, 0.2617993877991428575 ) ;
#19 = FACE_OUTER_BOUND ( 'NONE', #160, .T. ) ;
#20 = DIRECTION ( 'NONE',  ( 3.491481338843133355E-15, -0.0000000000000000000, 1.000000000000000000 ) ) ;
#21 = CARTESIAN_POINT ( 'NONE',  ( 0.3500000000000037526, 0.0000000000000000000, 1.049999999999998712 ) ) ;
#22 = CC_DESIGN_DATE_AND_TIME_ASSIGNMENT ( #233, #134, ( #196 ) ) ;
#23 = COORDINATED_UNIVERSAL_TIME_OFFSET ( 1, 0, .AHEAD. ) ;
#24 =( LENGTH_UNIT ( ) NAMED_UNIT ( * ) SI_UNIT ( .MILLI., .METRE. ) );
#25 = ADVANCED_FACE ( 'NONE', ( #177, #99 ), #127, .T. ) ;
#26 = COORDINATED_UNIVERSAL_TIME_OFFSET ( 1, 0, .AHEAD. ) ;
#27 = SHAPE_DEFINITION_REPRESENTATION ( #114, #182 ) ;
#28 = DIRECTION ( 'NONE',  ( -3.491481338843133355E-15, 0.0000000000000000000, -1.000000000000000000 ) ) ;
#29 = AXIS2_PLACEMENT_3D ( 'NONE', #30, #70, #119 ) ;
#30 = CARTESIAN_POINT ( 'NONE',  ( 1.326762908760390423E-13, 0.0000000000000000000, 38.00000000000000000 ) ) ;
#31 = PERSON ( 'UNSPECIFIED', 'UNSPECIFIED', 'UNSPECIFIED', ('UNSPECIFIED'), ('UNSPECIFIED'), ('UNSPECIFIED') ) ;
#32 = ORIENTED_EDGE ( 'NONE', *, *, #232, .T. ) ;
#33 = DIRECTION ( 'NONE',  ( 3.491481338843133355E-15, -0.0000000000000000000, 1.000000000000000000 ) ) ;
#34 = PERSON_AND_ORGANIZATION_ROLE ( 'creator' ) ;
#35 = EDGE_LOOP ( 'NONE', ( #241 ) ) ;
#36 = CARTESIAN_POINT ( 'NONE',  ( 3.666055405785290023E-15, 0.0000000000000000000, 1.050000000000000044 ) ) ;
#37 = EDGE_LOOP ( 'NONE', ( #32 ) ) ;
#38 = EDGE_CURVE ( 'NONE', #61, #61, #41, .T. ) ;
#39 = DESIGN_CONTEXT ( 'detailed design', #100, 'design' ) ;
#40 =( NAMED_UNIT ( * ) PLANE_ANGLE_UNIT ( ) SI_UNIT ( $, .RADIAN. ) );
#41 = CIRCLE ( 'NONE', #122, 1.600000000000000089 ) ;
#42 = MECHANICAL_CONTEXT ( 'NONE', #59, 'mechanical' ) ;
#43 = CC_DESIGN_PERSON_AND_ORGANIZATION_ASSIGNMENT ( #135, #172, ( #95 ) ) ;
#44 = PERSON_AND_ORGANIZATION_ROLE ( 'design_owner' ) ;
#45 = CARTESIAN_POINT ( 'NONE',  ( 0.4181483474218655738, 0.0000000000000000000, 1.567638090205027313 ) ) ;
#46 = CLOSED_SHELL ( 'NONE', ( #83, #25, #210 ) ) ;
#47 = EDGE_CURVE ( 'NONE', #77, #77, #97, .T. ) ;
#48 = APPROVAL_STATUS ( 'not_yet_approved' ) ;
#49 = PERSON_AND_ORGANIZATION_ROLE ( 'classification_officer' ) ;
#50 = ORIENTED_EDGE ( 'NONE', *, *, #38, .T. ) ;
#51 = AXIS2_PLACEMENT_3D ( 'NONE', #133, #113, #148 ) ;
#52 = FACE_BOUND ( 'NONE', #107, .T. ) ;
#53 = COORDINATED_UNIVERSAL_TIME_OFFSET ( 1, 0, .AHEAD. ) ;
#54 = ORIENTED_EDGE ( 'NONE', *, *, #111, .F. ) ;
#55 = FACE_OUTER_BOUND ( 'NONE', #121, .T. ) ;
#56 = ORIENTED_EDGE ( 'NONE', *, *, #232, .F. ) ;
#57 = FACE_OUTER_BOUND ( 'NONE', #128, .T. ) ;
#58 = CONICAL_SURFACE ( 'NONE', #74, 1.600000000000000089, 0.7853981633974512766 ) ;
#59 = APPLICATION_CONTEXT ( 'configuration controlled 3d designs of mechanical parts and assemblies' ) ;
#60 =( NAMED_UNIT ( * ) SI_UNIT ( $, .STERADIAN. ) SOLID_ANGLE_UNIT ( ) );
#61 = VERTEX_POINT ( 'NONE', #115 ) ;
#62 = DIRECTION ( 'NONE',  ( 0.0000000000000000000, 0.0000000000000000000, 1.000000000000000000 ) ) ;
#63 = CARTESIAN_POINT ( 'NONE',  ( 2.608551637076074607E-14, 0.0000000000000000000, 7.471188827663594267 ) ) ;
#64 = PERSON_AND_ORGANIZATION_ROLE ( 'design_supplier' ) ;
#65 = APPROVAL_DATE_TIME ( #158, #221 ) ;
#66 = ORIENTED_EDGE ( 'NONE', *, *, #162, .T. ) ;
#67 = ORGANIZATION ( 'UNSPECIFIED', 'UNSPECIFIED', '' ) ;
#68 = FACE_OUTER_BOUND ( 'NONE', #125, .T. ) ;
#69 =( GEOMETRIC_REPRESENTATION_CONTEXT ( 3 ) GLOBAL_UNCERTAINTY_ASSIGNED_CONTEXT ( ( #17 ) ) GLOBAL_UNIT_ASSIGNED_CONTEXT ( ( #24, #40, #60 ) ) REPRESENTATION_CONTEXT ( 'NONE', 'WORKASPACE' ) );
#70 = DIRECTION ( 'NONE',  ( 3.491481338843133355E-15, -0.0000000000000000000, 1.000000000000000000 ) ) ;
#71 = COORDINATED_UNIVERSAL_TIME_OFFSET ( 1, 0, .AHEAD. ) ;
#72 = EDGE_LOOP ( 'NONE', ( #199 ) ) ;
#73 = ORIENTED_EDGE ( 'NONE', *, *, #38, .F. ) ;
#74 = AXIS2_PLACEMENT_3D ( 'NONE', #103, #173, #13 ) ;
#75 = LOCAL_TIME ( 7, 59, 37.00000000000000000, #23 ) ;
#76 = CIRCLE ( 'NONE', #226, 0.3500000000000000333 ) ;
#77 = VERTEX_POINT ( 'NONE', #21 ) ;
#78 = APPROVAL ( #48, 'UNSPECIFIED' ) ;
#79 = CARTESIAN_POINT ( 'NONE',  ( 2.000000000000026201, 0.0000000000000000000, 7.471188827663587162 ) ) ;
#80 = CARTESIAN_POINT ( 'NONE',  ( 2.000000000000131450, 0.0000000000000000000, 37.59999999999999432 ) ) ;
#81 = AXIS2_PLACEMENT_3D ( 'NONE', #63, #8, #229 ) ;
#82 = CARTESIAN_POINT ( 'NONE',  ( 0.0000000000000000000, 0.0000000000000000000, 0.0000000000000000000 ) ) ;
#83 = ADVANCED_FACE ( 'NONE', ( #57 ), #86, .T. ) ;
#84 = MANIFOLD_SOLID_BREP ( 'Corps-Déplacer/Copier1[1]', #142 ) ;
#85 = APPLICATION_PROTOCOL_DEFINITION ( 'international standard', 'config_control_design', 1994, #100 ) ;
#86 = PLANE ( 'NONE',  #161 ) ;
#87 = DIRECTION ( 'NONE',  ( 3.491481338843133355E-15, -0.0000000000000000000, 1.000000000000000000 ) ) ;
#88 = APPROVAL_STATUS ( 'not_yet_approved' ) ;
#89 = CC_DESIGN_APPROVAL ( #221, ( #95 ) ) ;
#90 = DIRECTION ( 'NONE',  ( 3.491481338843133355E-15, -0.0000000000000000000, 1.000000000000000000 ) ) ;
#91 = DIRECTION ( 'NONE',  ( 3.491481338843133355E-15, -0.0000000000000000000, 1.000000000000000000 ) ) ;
#92 = ADVANCED_FACE ( 'NONE', ( #153, #214 ), #58, .T. ) ;
#93 = DIRECTION ( 'NONE',  ( 3.491481338843133355E-15, -0.0000000000000000000, 1.000000000000000000 ) ) ;
#94 = VERTEX_POINT ( 'NONE', #45 ) ;
#95 = PRODUCT_DEFINITION_FORMATION_WITH_SPECIFIED_SOURCE ( 'ANY', '', #188, .NOT_KNOWN. ) ;
#96 = VERTEX_POINT ( 'NONE', #5 ) ;
#97 = CIRCLE ( 'NONE', #206, 0.3500000000000000333 ) ;
#98 = PERSON_AND_ORGANIZATION ( #31, #67 ) ;
#99 = FACE_OUTER_BOUND ( 'NONE', #181, .T. ) ;
#100 = APPLICATION_CONTEXT ( 'configuration controlled 3d designs of mechanical parts and assemblies' ) ;
#101 = DIRECTION ( 'NONE',  ( -3.491481338843133355E-15, 0.0000000000000000000, -1.000000000000000000 ) ) ;
#102 = PERSON_AND_ORGANIZATION ( #31, #67 ) ;
#103 = CARTESIAN_POINT ( 'NONE',  ( 1.326762908760390423E-13, 0.0000000000000000000, 38.00000000000000000 ) ) ;
#104 = FACE_OUTER_BOUND ( 'NONE', #35, .T. ) ;
#105 = EDGE_LOOP ( 'NONE', ( #136 ) ) ;
#106 = LOCAL_TIME ( 7, 59, 37.00000000000000000, #118 ) ;
#107 = EDGE_LOOP ( 'NONE', ( #219 ) ) ;
#108 = EDGE_LOOP ( 'NONE', ( #202 ) ) ;
#109 = CC_DESIGN_SECURITY_CLASSIFICATION ( #209, ( #95 ) ) ;
#110 = CIRCLE ( 'NONE', #6, 2.000000000000000000 ) ;
#111 = EDGE_CURVE ( 'NONE', #112, #112, #222, .T. ) ;
#112 = VERTEX_POINT ( 'NONE', #7 ) ;
#113 = DIRECTION ( 'NONE',  ( -3.491481338843133355E-15, 0.0000000000000000000, -1.000000000000000000 ) ) ;
#114 = PRODUCT_DEFINITION_SHAPE ( 'NONE', 'NONE',  #196 ) ;
#115 = CARTESIAN_POINT ( 'NONE',  ( 1.600000000000132871, 0.0000000000000000000, 37.99999999999999289 ) ) ;
#116 = AXIS2_PLACEMENT_3D ( 'NONE', #190, #225, #205 ) ;
#117 = DATE_AND_TIME ( #152, #75 ) ;
#118 = COORDINATED_UNIVERSAL_TIME_OFFSET ( 1, 0, .AHEAD. ) ;
#119 = DIRECTION ( 'NONE',  ( 1.000000000000000000, 0.0000000000000000000, -3.491481338843133355E-15 ) ) ;
#120 = APPROVAL_STATUS ( 'not_yet_approved' ) ;
#121 = EDGE_LOOP ( 'NONE', ( #50 ) ) ;
#122 = AXIS2_PLACEMENT_3D ( 'NONE', #159, #240, #141 ) ;
#123 = CARTESIAN_POINT ( 'NONE',  ( 2.608551637076074607E-14, 0.0000000000000000000, 7.471188827663594267 ) ) ;
#124 = SECURITY_CLASSIFICATION_LEVEL ( 'unclassified' ) ;
#125 = EDGE_LOOP ( 'NONE', ( #11 ) ) ;
#126 = DIRECTION ( 'NONE',  ( 1.000000000000000000, 0.0000000000000000000, -3.491481338843133750E-15 ) ) ;
#127 = CYLINDRICAL_SURFACE ( 'NONE', #216, 0.3500000000000000333 ) ;
#128 = EDGE_LOOP ( 'NONE', ( #54 ) ) ;
#129 = APPROVAL_PERSON_ORGANIZATION ( #102, #221, #151 ) ;
#130 = TOROIDAL_SURFACE ( 'NONE', #131, 2.350000000000000089, 2.000000000000000000 ) ;
#131 = AXIS2_PLACEMENT_3D ( 'NONE', #174, #33, #139 ) ;
#132 = CC_DESIGN_DATE_AND_TIME_ASSIGNMENT ( #239, #198, ( #209 ) ) ;
#133 = CARTESIAN_POINT ( 'NONE',  ( 3.666055405785290812E-15, -1.138412281109779656E-16, 1.050000000000000044 ) ) ;
#134 = DATE_TIME_ROLE ( 'creation_date' ) ;
#135 = PERSON_AND_ORGANIZATION ( #31, #67 ) ;
#136 = ORIENTED_EDGE ( 'NONE', *, *, #228, .T. ) ;
#137 = CARTESIAN_POINT ( 'NONE',  ( 3.666055405785290023E-15, 0.0000000000000000000, 1.050000000000000044 ) ) ;
#138 = CALENDAR_DATE ( 2021, 9, 11 ) ;
#139 = DIRECTION ( 'NONE',  ( 1.000000000000000000, 0.0000000000000000000, -3.491481338843133355E-15 ) ) ;
#140 = ADVANCED_FACE ( 'NONE', ( #68, #104 ), #130, .F. ) ;
#141 = DIRECTION ( 'NONE',  ( 1.000000000000000000, 0.0000000000000000000, -4.336808689942017736E-15 ) ) ;
#142 = CLOSED_SHELL ( 'NONE', ( #189, #92, #186, #140, #184, #175 ) ) ;
#143 = CC_DESIGN_PERSON_AND_ORGANIZATION_ASSIGNMENT ( #9, #64, ( #95 ) ) ;
#144 = LOCAL_TIME ( 7, 59, 37.00000000000000000, #53 ) ;
#145 = PLANE ( 'NONE',  #51 ) ;
#146 = FACE_OUTER_BOUND ( 'NONE', #105, .T. ) ;
#147 = AXIS2_PLACEMENT_3D ( 'NONE', #123, #90, #157 ) ;
#148 = DIRECTION ( 'NONE',  ( -1.000000000000000000, 0.0000000000000000000, 3.491481338843133355E-15 ) ) ;
#149 = PERSON_AND_ORGANIZATION ( #31, #67 ) ;
#150 = APPROVAL ( #88, 'UNSPECIFIED' ) ;
#151 = APPROVAL_ROLE ( '' ) ;
#152 = CALENDAR_DATE ( 2021, 9, 11 ) ;
#153 = FACE_OUTER_BOUND ( 'NONE', #37, .T. ) ;
#154 = FACE_OUTER_BOUND ( 'NONE', #217, .T. ) ;
#155 = EDGE_LOOP ( 'NONE', ( #73 ) ) ;
#156 = MANIFOLD_SOLID_BREP ( 'Corps-Déplacer/Copier1[2]', #46 ) ;
#157 = DIRECTION ( 'NONE',  ( 1.000000000000000000, 0.0000000000000000000, -3.469446951953614189E-15 ) ) ;
#158 = DATE_AND_TIME ( #213, #203 ) ;
#159 = CARTESIAN_POINT ( 'NONE',  ( 1.326762908760390423E-13, 0.0000000000000000000, 38.00000000000000000 ) ) ;
#160 = EDGE_LOOP ( 'NONE', ( #66 ) ) ;
#161 = AXIS2_PLACEMENT_3D ( 'NONE', #16, #28, #169 ) ;
#162 = EDGE_CURVE ( 'NONE', #96, #96, #76, .T. ) ;
#163 = CARTESIAN_POINT ( 'NONE',  ( 5.473379138010546404E-15, 0.0000000000000000000, 1.567638090205028867 ) ) ;
#164 = AXIS2_PLACEMENT_3D ( 'NONE', #82, #62, #3 ) ;
#165 = CYLINDRICAL_SURFACE ( 'NONE', #116, 2.000000000000000000 ) ;
#166 = AXIS2_PLACEMENT_3D ( 'NONE', #170, #197, #126 ) ;
#167 = DATE_AND_TIME ( #138, #106 ) ;
#168 = APPROVAL_ROLE ( '' ) ;
#169 = DIRECTION ( 'NONE',  ( -1.000000000000000000, 0.0000000000000000000, 3.491481338843133355E-15 ) ) ;
#170 = CARTESIAN_POINT ( 'NONE',  ( -9.831781012932406109E-37, 0.0000000000000000000, -2.815934000148506281E-22 ) ) ;
#171 = PLANE ( 'NONE',  #242 ) ;
#172 = PERSON_AND_ORGANIZATION_ROLE ( 'creator' ) ;
#173 = DIRECTION ( 'NONE',  ( -3.491481338843133355E-15, 0.0000000000000000000, -1.000000000000000000 ) ) ;
#174 = CARTESIAN_POINT ( 'NONE',  ( 3.666055405785290812E-15, 0.0000000000000000000, 1.050000000000000044 ) ) ;
#175 = ADVANCED_FACE ( 'NONE', ( #154 ), #171, .T. ) ;
#176 = CALENDAR_DATE ( 2021, 9, 11 ) ;
#177 = FACE_OUTER_BOUND ( 'NONE', #108, .T. ) ;
#178 = LOCAL_TIME ( 7, 59, 37.00000000000000000, #26 ) ;
#179 = DIRECTION ( 'NONE',  ( 3.491481338843133355E-15, -0.0000000000000000000, 1.000000000000000000 ) ) ;
#180 = AXIS2_PLACEMENT_3D ( 'NONE', #163, #20, #227 ) ;
#181 = EDGE_LOOP ( 'NONE', ( #234 ) ) ;
#182 = ADVANCED_BREP_SHAPE_REPRESENTATION ( '334919', ( #84, #156, #164 ), #69 ) ;
#183 = CIRCLE ( 'NONE', #81, 2.000000000000000000 ) ;
#184 = ADVANCED_FACE ( 'NONE', ( #52, #14 ), #18, .T. ) ;
#185 = APPROVAL_ROLE ( '' ) ;
#186 = ADVANCED_FACE ( 'NONE', ( #55 ), #238, .T. ) ;
#187 = DIRECTION ( 'NONE',  ( 1.000000000000000000, 0.0000000000000000000, -3.469446951953614189E-15 ) ) ;
#188 = PRODUCT ( '334919', '334919', '', ( #42 ) ) ;
#189 = ADVANCED_FACE ( 'NONE', ( #235, #146 ), #165, .T. ) ;
#190 = CARTESIAN_POINT ( 'NONE',  ( 0.0000000000000000000, 0.0000000000000000000, 0.0000000000000000000 ) ) ;
#191 = EDGE_CURVE ( 'NONE', #94, #94, #2, .T. ) ;
#192 = APPROVAL_DATE_TIME ( #167, #150 ) ;
#193 = DIRECTION ( 'NONE',  ( 1.000000000000000000, 0.0000000000000000000, -3.491481338843133750E-15 ) ) ;
#194 = DIRECTION ( 'NONE',  ( -1.000000000000000000, 0.0000000000000000000, 3.491481338843133355E-15 ) ) ;
#195 = EDGE_LOOP ( 'NONE', ( #56 ) ) ;
#196 = PRODUCT_DEFINITION ( 'UNKNOWN', '', #95, #39 ) ;
#197 = DIRECTION ( 'NONE',  ( 3.491481338843133355E-15, -0.0000000000000000000, 1.000000000000000000 ) ) ;
#198 = DATE_TIME_ROLE ( 'classification_date' ) ;
#199 = ORIENTED_EDGE ( 'NONE', *, *, #228, .F. ) ;
#200 = CARTESIAN_POINT ( 'NONE',  ( 0.0000000000000000000, 0.0000000000000000000, 0.0000000000000000000 ) ) ;
#201 = PRODUCT_RELATED_PRODUCT_CATEGORY ( 'detail', '', ( #188 ) ) ;
#202 = ORIENTED_EDGE ( 'NONE', *, *, #111, .T. ) ;
#203 = LOCAL_TIME ( 7, 59, 37.00000000000000000, #71 ) ;
#204 = CC_DESIGN_PERSON_AND_ORGANIZATION_ASSIGNMENT ( #212, #49, ( #209 ) ) ;
#205 = DIRECTION ( 'NONE',  ( 1.000000000000000000, 0.0000000000000000000, -3.491481338843133355E-15 ) ) ;
#206 = AXIS2_PLACEMENT_3D ( 'NONE', #36, #179, #237 ) ;
#207 = APPLICATION_PROTOCOL_DEFINITION ( 'international standard', 'config_control_design', 1994, #59 ) ;
#208 = PERSON_AND_ORGANIZATION ( #31, #67 ) ;
#209 = SECURITY_CLASSIFICATION ( '', '', #124 ) ;
#210 = ADVANCED_FACE ( 'NONE', ( #19 ), #145, .F. ) ;
#211 = CARTESIAN_POINT ( 'NONE',  ( 1.312796983405018142E-13, 0.0000000000000000000, 37.60000000000000142 ) ) ;
#212 = PERSON_AND_ORGANIZATION ( #31, #67 ) ;
#213 = CALENDAR_DATE ( 2021, 9, 11 ) ;
#214 = FACE_BOUND ( 'NONE', #155, .T. ) ;
#215 = CARTESIAN_POINT ( 'NONE',  ( 3.666055405785290812E-15, -1.138412281109779656E-16, 1.050000000000000044 ) ) ;
#216 = AXIS2_PLACEMENT_3D ( 'NONE', #200, #91, #193 ) ;
#217 = EDGE_LOOP ( 'NONE', ( #220 ) ) ;
#218 = DIRECTION ( 'NONE',  ( 1.000000000000000000, 0.0000000000000000000, -3.717264591378872007E-15 ) ) ;
#219 = ORIENTED_EDGE ( 'NONE', *, *, #191, .T. ) ;
#220 = ORIENTED_EDGE ( 'NONE', *, *, #47, .F. ) ;
#221 = APPROVAL ( #120, 'UNSPECIFIED' ) ;
#222 = CIRCLE ( 'NONE', #166, 0.3500000000000000333 ) ;
#223 = CC_DESIGN_PERSON_AND_ORGANIZATION_ASSIGNMENT ( #98, #34, ( #196 ) ) ;
#224 = VERTEX_POINT ( 'NONE', #79 ) ;
#225 = DIRECTION ( 'NONE',  ( 3.491481338843133355E-15, -0.0000000000000000000, 1.000000000000000000 ) ) ;
#226 = AXIS2_PLACEMENT_3D ( 'NONE', #137, #87, #218 ) ;
#227 = DIRECTION ( 'NONE',  ( 1.000000000000000000, 0.0000000000000000000, -3.630010858199924170E-15 ) ) ;
#228 = EDGE_CURVE ( 'NONE', #224, #224, #183, .T. ) ;
#229 = DIRECTION ( 'NONE',  ( 1.000000000000000000, 0.0000000000000000000, -3.469446951953614189E-15 ) ) ;
#230 = VERTEX_POINT ( 'NONE', #80 ) ;
#231 = CALENDAR_DATE ( 2021, 9, 11 ) ;
#232 = EDGE_CURVE ( 'NONE', #230, #230, #110, .T. ) ;
#233 = DATE_AND_TIME ( #231, #144 ) ;
#234 = ORIENTED_EDGE ( 'NONE', *, *, #162, .F. ) ;
#235 = FACE_OUTER_BOUND ( 'NONE', #195, .T. ) ;
#236 = APPROVAL_PERSON_ORGANIZATION ( #10, #150, #168 ) ;
#237 = DIRECTION ( 'NONE',  ( 1.000000000000000000, 0.0000000000000000000, -3.717264591378872007E-15 ) ) ;
#238 = PLANE ( 'NONE',  #29 ) ;
#239 = DATE_AND_TIME ( #176, #178 ) ;
#240 = DIRECTION ( 'NONE',  ( 3.491481338843133355E-15, -0.0000000000000000000, 1.000000000000000000 ) ) ;
#241 = ORIENTED_EDGE ( 'NONE', *, *, #191, .F. ) ;
#242 = AXIS2_PLACEMENT_3D ( 'NONE', #215, #101, #194 ) ;
#243 = CC_DESIGN_APPROVAL ( #150, ( #209 ) ) ;
ENDSEC;
END-ISO-10303-21;
