ISO-10303-21;
HEADER;
FILE_DESCRIPTION (( 'STEP AP203' ),
    '1' );
FILE_NAME ('334918.step',
    '2021-11-09T06:59:37',
    ( '' ),
    ( '' ),
    'SwSTEP 2.0',
    'SolidWorks 2019',
    '' );
FILE_SCHEMA (( 'CONFIG_CONTROL_DESIGN' ));
ENDSEC;

DATA;
#1 = AXIS2_PLACEMENT_3D ( 'NONE', #53, #9, #54 ) ;
#2 = CARTESIAN_POINT ( 'NONE',  ( 3.142333204958819625E-15, -9.757819552369537441E-17, 0.8999999999999999112 ) ) ;
#3 = ADVANCED_FACE ( 'NONE', ( #84 ), #158, .T. ) ;
#4 = CIRCLE ( 'NONE', #134, 1.600000000000000089 ) ;
#5 = DIRECTION ( 'NONE',  ( 3.491481338843133355E-15, -0.0000000000000000000, 1.000000000000000000 ) ) ;
#6 = PLANE ( 'NONE',  #91 ) ;
#7 = DIRECTION ( 'NONE',  ( -3.491481338843133355E-15, 0.0000000000000000000, -1.000000000000000000 ) ) ;
#8 = LOCAL_TIME ( 7, 59, 37.00000000000000000, #83 ) ;
#9 = DIRECTION ( 'NONE',  ( 3.491481338843133355E-15, -0.0000000000000000000, 1.000000000000000000 ) ) ;
#10 = PERSON_AND_ORGANIZATION ( #63, #125 ) ;
#11 = VERTEX_POINT ( 'NONE', #78 ) ;
#12 = PERSON_AND_ORGANIZATION_ROLE ( 'design_owner' ) ;
#13 = CARTESIAN_POINT ( 'NONE',  ( 0.3000000000000030420, 0.0000000000000000000, 0.8999999999999985789 ) ) ;
#14 = VERTEX_POINT ( 'NONE', #172 ) ;
#15 = EDGE_LOOP ( 'NONE', ( #199 ) ) ;
#16 = CIRCLE ( 'NONE', #68, 2.000000000000000000 ) ;
#17 = ADVANCED_FACE ( 'NONE', ( #86, #229 ), #80, .F. ) ;
#18 = APPROVAL_ROLE ( '' ) ;
#19 = ADVANCED_FACE ( 'NONE', ( #185, #166 ), #70, .T. ) ;
#20 = DIRECTION ( 'NONE',  ( -1.000000000000000000, 0.0000000000000000000, 3.491481338843133355E-15 ) ) ;
#21 = CLOSED_SHELL ( 'NONE', ( #118, #19, #139, #17, #127, #3 ) ) ;
#22 = DIRECTION ( 'NONE',  ( 3.491481338843133355E-15, -0.0000000000000000000, 1.000000000000000000 ) ) ;
#23 = LOCAL_TIME ( 7, 59, 37.00000000000000000, #46 ) ;
#24 = DIRECTION ( 'NONE',  ( 3.491481338843133355E-15, -0.0000000000000000000, 1.000000000000000000 ) ) ;
#25 = ADVANCED_BREP_SHAPE_REPRESENTATION ( '334918', ( #73, #79, #213 ), #163 ) ;
#26 = PERSON_AND_ORGANIZATION ( #63, #125 ) ;
#27 = CC_DESIGN_PERSON_AND_ORGANIZATION_ASSIGNMENT ( #198, #106, ( #50 ) ) ;
#28 = DIRECTION ( 'NONE',  ( 1.000000000000000000, 0.0000000000000000000, 0.0000000000000000000 ) ) ;
#29 = EDGE_CURVE ( 'NONE', #209, #209, #4, .T. ) ;
#30 = COORDINATED_UNIVERSAL_TIME_OFFSET ( 1, 0, .AHEAD. ) ;
#31 = AXIS2_PLACEMENT_3D ( 'NONE', #167, #42, #20 ) ;
#32 = DATE_AND_TIME ( #241, #201 ) ;
#33 = ADVANCED_FACE ( 'NONE', ( #147 ), #184, .T. ) ;
#34 = ORIENTED_EDGE ( 'NONE', *, *, #171, .F. ) ;
#35 = FACE_OUTER_BOUND ( 'NONE', #48, .T. ) ;
#36 = CIRCLE ( 'NONE', #228, 0.2999999999999999334 ) ;
#37 = DIRECTION ( 'NONE',  ( -3.491481338843133355E-15, 0.0000000000000000000, -1.000000000000000000 ) ) ;
#38 = CLOSED_SHELL ( 'NONE', ( #33, #94, #57 ) ) ;
#39 = DIRECTION ( 'NONE',  ( 3.491481338843133355E-15, -0.0000000000000000000, 1.000000000000000000 ) ) ;
#40 = APPROVAL ( #45, 'UNSPECIFIED' ) ;
#41 = CARTESIAN_POINT ( 'NONE',  ( 1.326762908760390423E-13, 0.0000000000000000000, 38.00000000000000000 ) ) ;
#42 = DIRECTION ( 'NONE',  ( -3.491481338843133355E-15, 0.0000000000000000000, -1.000000000000000000 ) ) ;
#43 = CC_DESIGN_PERSON_AND_ORGANIZATION_ASSIGNMENT ( #93, #12, ( #117 ) ) ;
#44 =( NAMED_UNIT ( * ) PLANE_ANGLE_UNIT ( ) SI_UNIT ( $, .RADIAN. ) );
#45 = APPROVAL_STATUS ( 'not_yet_approved' ) ;
#46 = COORDINATED_UNIVERSAL_TIME_OFFSET ( 1, 0, .AHEAD. ) ;
#47 = PRODUCT_RELATED_PRODUCT_CATEGORY ( 'detail', '', ( #117 ) ) ;
#48 = EDGE_LOOP ( 'NONE', ( #220 ) ) ;
#49 = ORIENTED_EDGE ( 'NONE', *, *, #171, .T. ) ;
#50 = SECURITY_CLASSIFICATION ( '', '', #192 ) ;
#51 = ORIENTED_EDGE ( 'NONE', *, *, #105, .F. ) ;
#52 = DIRECTION ( 'NONE',  ( 3.491481338843133355E-15, -0.0000000000000000000, 1.000000000000000000 ) ) ;
#53 = CARTESIAN_POINT ( 'NONE',  ( 1.312796983405018142E-13, 0.0000000000000000000, 37.60000000000000142 ) ) ;
#54 = DIRECTION ( 'NONE',  ( 1.000000000000000000, 0.0000000000000000000, -3.469446951953614189E-15 ) ) ;
#55 = CARTESIAN_POINT ( 'NONE',  ( 4.949656937184075612E-15, 0.0000000000000000000, 1.417638090205028512 ) ) ;
#56 = DIRECTION ( 'NONE',  ( 1.000000000000000000, 0.0000000000000000000, -3.469446951953614189E-15 ) ) ;
#57 = ADVANCED_FACE ( 'NONE', ( #204 ), #162, .F. ) ;
#58 = APPROVAL_PERSON_ORGANIZATION ( #10, #64, #151 ) ;
#59 = CALENDAR_DATE ( 2021, 9, 11 ) ;
#60 = AXIS2_PLACEMENT_3D ( 'NONE', #55, #39, #110 ) ;
#61 = CARTESIAN_POINT ( 'NONE',  ( 0.2999999999999999334, 0.0000000000000000000, -1.047444683246339588E-15 ) ) ;
#62 = PERSON_AND_ORGANIZATION_ROLE ( 'creator' ) ;
#63 = PERSON ( 'UNSPECIFIED', 'UNSPECIFIED', 'UNSPECIFIED', ('UNSPECIFIED'), ('UNSPECIFIED'), ('UNSPECIFIED') ) ;
#64 = APPROVAL ( #77, 'UNSPECIFIED' ) ;
#65 = LOCAL_TIME ( 7, 59, 37.00000000000000000, #159 ) ;
#66 = APPLICATION_CONTEXT ( 'configuration controlled 3d designs of mechanical parts and assemblies' ) ;
#67 = EDGE_LOOP ( 'NONE', ( #216 ) ) ;
#68 = AXIS2_PLACEMENT_3D ( 'NONE', #76, #230, #56 ) ;
#69 = FACE_OUTER_BOUND ( 'NONE', #85, .T. ) ;
#70 = CONICAL_SURFACE ( 'NONE', #101, 1.600000000000000089, 0.7853981633974512766 ) ;
#71 = DIRECTION ( 'NONE',  ( -1.000000000000000000, 0.0000000000000000000, 3.491481338843133355E-15 ) ) ;
#72 = DIRECTION ( 'NONE',  ( 3.491481338843133355E-15, -0.0000000000000000000, 1.000000000000000000 ) ) ;
#73 = MANIFOLD_SOLID_BREP ( 'Corps-Déplacer/Copier1[1]', #21 ) ;
#74 = CIRCLE ( 'NONE', #96, 0.2999999999999999334 ) ;
#75 = DIRECTION ( 'NONE',  ( 1.000000000000000000, 0.0000000000000000000, -3.491481338843133355E-15 ) ) ;
#76 = CARTESIAN_POINT ( 'NONE',  ( 2.621331345744635246E-14, 0.0000000000000000000, 7.507791368042044056 ) ) ;
#77 = APPROVAL_STATUS ( 'not_yet_approved' ) ;
#78 = CARTESIAN_POINT ( 'NONE',  ( 2.000000000000026201, 0.0000000000000000000, 7.507791368042036950 ) ) ;
#79 = MANIFOLD_SOLID_BREP ( 'Corps-Déplacer/Copier1[2]', #38 ) ;
#80 = TOROIDAL_SURFACE ( 'NONE', #233, 2.299999999999999378, 2.000000000000000000 ) ;
#81 = APPLICATION_PROTOCOL_DEFINITION ( 'international standard', 'config_control_design', 1994, #207 ) ;
#82 = VERTEX_POINT ( 'NONE', #119 ) ;
#83 = COORDINATED_UNIVERSAL_TIME_OFFSET ( 1, 0, .AHEAD. ) ;
#84 = FACE_OUTER_BOUND ( 'NONE', #103, .T. ) ;
#85 = EDGE_LOOP ( 'NONE', ( #124 ) ) ;
#86 = FACE_OUTER_BOUND ( 'NONE', #177, .T. ) ;
#87 = PRODUCT_DEFINITION_FORMATION_WITH_SPECIFIED_SOURCE ( 'ANY', '', #117, .NOT_KNOWN. ) ;
#88 = APPROVAL ( #142, 'UNSPECIFIED' ) ;
#89 = CARTESIAN_POINT ( 'NONE',  ( 3.142333204958819625E-15, -9.757819552369537441E-17, 0.8999999999999999112 ) ) ;
#90 = DIRECTION ( 'NONE',  ( 1.000000000000000000, 0.0000000000000000000, -4.336808689942017736E-15 ) ) ;
#91 = AXIS2_PLACEMENT_3D ( 'NONE', #206, #52, #92 ) ;
#92 = DIRECTION ( 'NONE',  ( 1.000000000000000000, 0.0000000000000000000, -3.491481338843133355E-15 ) ) ;
#93 = PERSON_AND_ORGANIZATION ( #63, #125 ) ;
#94 = ADVANCED_FACE ( 'NONE', ( #130, #69 ), #203, .T. ) ;
#95 = DATE_AND_TIME ( #59, #155 ) ;
#96 = AXIS2_PLACEMENT_3D ( 'NONE', #128, #132, #133 ) ;
#97 = APPLICATION_PROTOCOL_DEFINITION ( 'international standard', 'config_control_design', 1994, #66 ) ;
#98 = APPROVAL_DATE_TIME ( #170, #40 ) ;
#99 = APPROVAL_DATE_TIME ( #32, #88 ) ;
#100 = CONICAL_SURFACE ( 'NONE', #148, 2.000000000000000000, 0.2617993877991429130 ) ;
#101 = AXIS2_PLACEMENT_3D ( 'NONE', #107, #183, #113 ) ;
#102 = PERSON_AND_ORGANIZATION ( #63, #125 ) ;
#103 = EDGE_LOOP ( 'NONE', ( #221 ) ) ;
#104 = CC_DESIGN_APPROVAL ( #40, ( #190 ) ) ;
#105 = EDGE_CURVE ( 'NONE', #14, #14, #164, .T. ) ;
#106 = PERSON_AND_ORGANIZATION_ROLE ( 'classification_officer' ) ;
#107 = CARTESIAN_POINT ( 'NONE',  ( 1.326762908760390423E-13, 0.0000000000000000000, 38.00000000000000000 ) ) ;
#108 = CC_DESIGN_PERSON_AND_ORGANIZATION_ASSIGNMENT ( #26, #175, ( #190 ) ) ;
#109 = CC_DESIGN_APPROVAL ( #88, ( #50 ) ) ;
#110 = DIRECTION ( 'NONE',  ( 1.000000000000000000, 0.0000000000000000000, -3.534017240859013012E-15 ) ) ;
#111 = DIRECTION ( 'NONE',  ( 3.491481338843133355E-15, -0.0000000000000000000, 1.000000000000000000 ) ) ;
#112 = CARTESIAN_POINT ( 'NONE',  ( 3.142333204958819625E-15, 0.0000000000000000000, 0.8999999999999999112 ) ) ;
#113 = DIRECTION ( 'NONE',  ( -1.000000000000000000, 0.0000000000000000000, 4.336808689942017736E-15 ) ) ;
#114 = VERTEX_POINT ( 'NONE', #152 ) ;
#115 = CC_DESIGN_PERSON_AND_ORGANIZATION_ASSIGNMENT ( #180, #179, ( #87 ) ) ;
#116 = APPROVAL_PERSON_ORGANIZATION ( #102, #88, #18 ) ;
#117 = PRODUCT ( '334918', '334918', '', ( #188 ) ) ;
#118 = ADVANCED_FACE ( 'NONE', ( #150, #35 ), #226, .T. ) ;
#119 = CARTESIAN_POINT ( 'NONE',  ( 2.000000000000131450, 0.0000000000000000000, 37.59999999999999432 ) ) ;
#120 = ORIENTED_EDGE ( 'NONE', *, *, #186, .T. ) ;
#121 = AXIS2_PLACEMENT_3D ( 'NONE', #2, #37, #71 ) ;
#122 = CALENDAR_DATE ( 2021, 9, 11 ) ;
#123 = EDGE_LOOP ( 'NONE', ( #161 ) ) ;
#124 = ORIENTED_EDGE ( 'NONE', *, *, #225, .F. ) ;
#125 = ORGANIZATION ( 'UNSPECIFIED', 'UNSPECIFIED', '' ) ;
#126 = CIRCLE ( 'NONE', #181, 0.2999999999999999334 ) ;
#127 = ADVANCED_FACE ( 'NONE', ( #145, #224 ), #100, .T. ) ;
#128 = CARTESIAN_POINT ( 'NONE',  ( 3.142333204958818836E-15, 0.0000000000000000000, 0.8999999999999996891 ) ) ;
#129 = DIRECTION ( 'NONE',  ( 1.000000000000000000, 0.0000000000000000000, -3.469446951953614189E-15 ) ) ;
#130 = FACE_OUTER_BOUND ( 'NONE', #242, .T. ) ;
#131 = DIRECTION ( 'NONE',  ( 1.000000000000000000, 0.0000000000000000000, -3.491481338843133355E-15 ) ) ;
#132 = DIRECTION ( 'NONE',  ( 3.491481338843133355E-15, -0.0000000000000000000, 1.000000000000000000 ) ) ;
#133 = DIRECTION ( 'NONE',  ( 1.000000000000000000, 0.0000000000000000000, -3.614007241618349165E-15 ) ) ;
#134 = AXIS2_PLACEMENT_3D ( 'NONE', #41, #165, #90 ) ;
#135 = CC_DESIGN_DATE_AND_TIME_ASSIGNMENT ( #143, #194, ( #50 ) ) ;
#136 = CARTESIAN_POINT ( 'NONE',  ( 0.0000000000000000000, 0.0000000000000000000, 0.0000000000000000000 ) ) ;
#137 = VERTEX_POINT ( 'NONE', #13 ) ;
#138 = DATE_TIME_ROLE ( 'creation_date' ) ;
#139 = ADVANCED_FACE ( 'NONE', ( #205 ), #6, .T. ) ;
#140 = EDGE_LOOP ( 'NONE', ( #144 ) ) ;
#141 = EDGE_LOOP ( 'NONE', ( #160 ) ) ;
#142 = APPROVAL_STATUS ( 'not_yet_approved' ) ;
#143 = DATE_AND_TIME ( #122, #65 ) ;
#144 = ORIENTED_EDGE ( 'NONE', *, *, #29, .T. ) ;
#145 = FACE_BOUND ( 'NONE', #123, .T. ) ;
#146 = CARTESIAN_POINT ( 'NONE',  ( 2.621331345744635246E-14, 0.0000000000000000000, 7.507791368042044056 ) ) ;
#147 = FACE_OUTER_BOUND ( 'NONE', #218, .T. ) ;
#148 = AXIS2_PLACEMENT_3D ( 'NONE', #146, #22, #129 ) ;
#149 = DIRECTION ( 'NONE',  ( 1.000000000000000000, 0.0000000000000000000, -3.491481338843132961E-15 ) ) ;
#150 = FACE_OUTER_BOUND ( 'NONE', #67, .T. ) ;
#151 = APPROVAL_ROLE ( '' ) ;
#152 = CARTESIAN_POINT ( 'NONE',  ( 0.3000000000000030420, 0.0000000000000000000, 0.8999999999999985789 ) ) ;
#153 = APPROVAL_ROLE ( '' ) ;
#154 = CARTESIAN_POINT ( 'NONE',  ( 3.142333204958818836E-15, 0.0000000000000000000, 0.8999999999999996891 ) ) ;
#155 = LOCAL_TIME ( 7, 59, 37.00000000000000000, #231 ) ;
#156 = CALENDAR_DATE ( 2021, 9, 11 ) ;
#157 = SHAPE_DEFINITION_REPRESENTATION ( #222, #25 ) ;
#158 = PLANE ( 'NONE',  #176 ) ;
#159 = COORDINATED_UNIVERSAL_TIME_OFFSET ( 1, 0, .AHEAD. ) ;
#160 = ORIENTED_EDGE ( 'NONE', *, *, #225, .T. ) ;
#161 = ORIENTED_EDGE ( 'NONE', *, *, #105, .T. ) ;
#162 = PLANE ( 'NONE',  #121 ) ;
#163 =( GEOMETRIC_REPRESENTATION_CONTEXT ( 3 ) GLOBAL_UNCERTAINTY_ASSIGNED_CONTEXT ( ( #200 ) ) GLOBAL_UNIT_ASSIGNED_CONTEXT ( ( #211, #44, #232 ) ) REPRESENTATION_CONTEXT ( 'NONE', 'WORKASPACE' ) );
#164 = CIRCLE ( 'NONE', #60, 0.3681483474218595342 ) ;
#165 = DIRECTION ( 'NONE',  ( 3.491481338843133355E-15, -0.0000000000000000000, 1.000000000000000000 ) ) ;
#166 = FACE_BOUND ( 'NONE', #15, .T. ) ;
#167 = CARTESIAN_POINT ( 'NONE',  ( -4.915890506466203054E-37, 0.0000000000000000000, -1.407967000074253141E-22 ) ) ;
#168 = CC_DESIGN_APPROVAL ( #64, ( #87 ) ) ;
#169 = DIRECTION ( 'NONE',  ( 1.000000000000000000, 0.0000000000000000000, -3.491481338843132961E-15 ) ) ;
#170 = DATE_AND_TIME ( #191, #23 ) ;
#171 = EDGE_CURVE ( 'NONE', #210, #210, #36, .T. ) ;
#172 = CARTESIAN_POINT ( 'NONE',  ( 0.3681483474218644192, 0.0000000000000000000, 1.417638090205027179 ) ) ;
#173 = CC_DESIGN_SECURITY_CLASSIFICATION ( #50, ( #87 ) ) ;
#174 = CARTESIAN_POINT ( 'NONE',  ( 1.600000000000132871, 0.0000000000000000000, 37.99999999999999289 ) ) ;
#175 = PERSON_AND_ORGANIZATION_ROLE ( 'creator' ) ;
#176 = AXIS2_PLACEMENT_3D ( 'NONE', #89, #7, #187 ) ;
#177 = EDGE_LOOP ( 'NONE', ( #243 ) ) ;
#178 = CC_DESIGN_PERSON_AND_ORGANIZATION_ASSIGNMENT ( #219, #62, ( #87 ) ) ;
#179 = PERSON_AND_ORGANIZATION_ROLE ( 'design_supplier' ) ;
#180 = PERSON_AND_ORGANIZATION ( #63, #125 ) ;
#181 = AXIS2_PLACEMENT_3D ( 'NONE', #154, #234, #235 ) ;
#182 = CARTESIAN_POINT ( 'NONE',  ( -9.831781012932406109E-37, 0.0000000000000000000, -2.815934000148506281E-22 ) ) ;
#183 = DIRECTION ( 'NONE',  ( -3.491481338843133355E-15, 0.0000000000000000000, -1.000000000000000000 ) ) ;
#184 = PLANE ( 'NONE',  #31 ) ;
#185 = FACE_OUTER_BOUND ( 'NONE', #239, .T. ) ;
#186 = EDGE_CURVE ( 'NONE', #82, #82, #193, .T. ) ;
#187 = DIRECTION ( 'NONE',  ( -1.000000000000000000, 0.0000000000000000000, 3.491481338843133355E-15 ) ) ;
#188 = MECHANICAL_CONTEXT ( 'NONE', #66, 'mechanical' ) ;
#189 = DIRECTION ( 'NONE',  ( 0.0000000000000000000, 0.0000000000000000000, 1.000000000000000000 ) ) ;
#190 = PRODUCT_DEFINITION ( 'UNKNOWN', '', #87, #223 ) ;
#191 = CALENDAR_DATE ( 2021, 9, 11 ) ;
#192 = SECURITY_CLASSIFICATION_LEVEL ( 'unclassified' ) ;
#193 = CIRCLE ( 'NONE', #1, 2.000000000000000000 ) ;
#194 = DATE_TIME_ROLE ( 'classification_date' ) ;
#195 = EDGE_CURVE ( 'NONE', #11, #11, #16, .T. ) ;
#196 = EDGE_LOOP ( 'NONE', ( #240 ) ) ;
#197 = AXIS2_PLACEMENT_3D ( 'NONE', #227, #24, #149 ) ;
#198 = PERSON_AND_ORGANIZATION ( #63, #125 ) ;
#199 = ORIENTED_EDGE ( 'NONE', *, *, #29, .F. ) ;
#200 = UNCERTAINTY_MEASURE_WITH_UNIT (LENGTH_MEASURE( 1.000000000000000082E-05 ), #211, 'distance_accuracy_value', 'NONE');
#201 = LOCAL_TIME ( 7, 59, 37.00000000000000000, #30 ) ;
#202 = EDGE_LOOP ( 'NONE', ( #51 ) ) ;
#203 = CYLINDRICAL_SURFACE ( 'NONE', #197, 0.2999999999999999334 ) ;
#204 = FACE_OUTER_BOUND ( 'NONE', #141, .T. ) ;
#205 = FACE_OUTER_BOUND ( 'NONE', #140, .T. ) ;
#206 = CARTESIAN_POINT ( 'NONE',  ( 1.326762908760390423E-13, 0.0000000000000000000, 38.00000000000000000 ) ) ;
#207 = APPLICATION_CONTEXT ( 'configuration controlled 3d designs of mechanical parts and assemblies' ) ;
#208 = CARTESIAN_POINT ( 'NONE',  ( 0.0000000000000000000, 0.0000000000000000000, 0.0000000000000000000 ) ) ;
#209 = VERTEX_POINT ( 'NONE', #174 ) ;
#210 = VERTEX_POINT ( 'NONE', #61 ) ;
#211 =( LENGTH_UNIT ( ) NAMED_UNIT ( * ) SI_UNIT ( .MILLI., .METRE. ) );
#212 = CC_DESIGN_DATE_AND_TIME_ASSIGNMENT ( #237, #138, ( #190 ) ) ;
#213 = AXIS2_PLACEMENT_3D ( 'NONE', #136, #189, #28 ) ;
#214 = PERSON_AND_ORGANIZATION ( #63, #125 ) ;
#215 = APPROVAL_PERSON_ORGANIZATION ( #214, #40, #153 ) ;
#216 = ORIENTED_EDGE ( 'NONE', *, *, #186, .F. ) ;
#217 = APPROVAL_DATE_TIME ( #95, #64 ) ;
#218 = EDGE_LOOP ( 'NONE', ( #34 ) ) ;
#219 = PERSON_AND_ORGANIZATION ( #63, #125 ) ;
#220 = ORIENTED_EDGE ( 'NONE', *, *, #195, .T. ) ;
#221 = ORIENTED_EDGE ( 'NONE', *, *, #238, .F. ) ;
#222 = PRODUCT_DEFINITION_SHAPE ( 'NONE', 'NONE',  #190 ) ;
#223 = DESIGN_CONTEXT ( 'detailed design', #207, 'design' ) ;
#224 = FACE_OUTER_BOUND ( 'NONE', #196, .T. ) ;
#225 = EDGE_CURVE ( 'NONE', #114, #114, #74, .T. ) ;
#226 = CYLINDRICAL_SURFACE ( 'NONE', #236, 2.000000000000000000 ) ;
#227 = CARTESIAN_POINT ( 'NONE',  ( 0.0000000000000000000, 0.0000000000000000000, 0.0000000000000000000 ) ) ;
#228 = AXIS2_PLACEMENT_3D ( 'NONE', #182, #72, #169 ) ;
#229 = FACE_OUTER_BOUND ( 'NONE', #202, .T. ) ;
#230 = DIRECTION ( 'NONE',  ( 3.491481338843133355E-15, -0.0000000000000000000, 1.000000000000000000 ) ) ;
#231 = COORDINATED_UNIVERSAL_TIME_OFFSET ( 1, 0, .AHEAD. ) ;
#232 =( NAMED_UNIT ( * ) SI_UNIT ( $, .STERADIAN. ) SOLID_ANGLE_UNIT ( ) );
#233 = AXIS2_PLACEMENT_3D ( 'NONE', #112, #5, #75 ) ;
#234 = DIRECTION ( 'NONE',  ( 3.491481338843133355E-15, -0.0000000000000000000, 1.000000000000000000 ) ) ;
#235 = DIRECTION ( 'NONE',  ( 1.000000000000000000, 0.0000000000000000000, -3.614007241618349165E-15 ) ) ;
#236 = AXIS2_PLACEMENT_3D ( 'NONE', #208, #111, #131 ) ;
#237 = DATE_AND_TIME ( #156, #8 ) ;
#238 = EDGE_CURVE ( 'NONE', #137, #137, #126, .T. ) ;
#239 = EDGE_LOOP ( 'NONE', ( #120 ) ) ;
#240 = ORIENTED_EDGE ( 'NONE', *, *, #195, .F. ) ;
#241 = CALENDAR_DATE ( 2021, 9, 11 ) ;
#242 = EDGE_LOOP ( 'NONE', ( #49 ) ) ;
#243 = ORIENTED_EDGE ( 'NONE', *, *, #238, .T. ) ;
ENDSEC;
END-ISO-10303-21;
