ISO-10303-21;
HEADER;
FILE_DESCRIPTION (( 'STEP AP203' ),
    '1' );
FILE_NAME ('334917.step',
    '2021-11-09T06:59:36',
    ( '' ),
    ( '' ),
    'SwSTEP 2.0',
    'SolidWorks 2019',
    '' );
FILE_SCHEMA (( 'CONFIG_CONTROL_DESIGN' ));
ENDSEC;

DATA;
#1 = LOCAL_TIME ( 7, 59, 36.00000000000000000, #166 ) ;
#2 = EDGE_CURVE ( 'NONE', #67, #67, #192, .T. ) ;
#3 = EDGE_LOOP ( 'NONE', ( #72 ) ) ;
#4 = EDGE_LOOP ( 'NONE', ( #132 ) ) ;
#5 = ORIENTED_EDGE ( 'NONE', *, *, #56, .F. ) ;
#6 = DATE_TIME_ROLE ( 'classification_date' ) ;
#7 = DIRECTION ( 'NONE',  ( 3.491481338843133355E-15, -0.0000000000000000000, 1.000000000000000000 ) ) ;
#8 = CC_DESIGN_PERSON_AND_ORGANIZATION_ASSIGNMENT ( #228, #127, ( #111 ) ) ;
#9 =( GEOMETRIC_REPRESENTATION_CONTEXT ( 3 ) GLOBAL_UNCERTAINTY_ASSIGNED_CONTEXT ( ( #99 ) ) GLOBAL_UNIT_ASSIGNED_CONTEXT ( ( #143, #201, #16 ) ) REPRESENTATION_CONTEXT ( 'NONE', 'WORKASPACE' ) );
#10 = FACE_OUTER_BOUND ( 'NONE', #206, .T. ) ;
#11 = FACE_OUTER_BOUND ( 'NONE', #110, .T. ) ;
#12 = DIRECTION ( 'NONE',  ( -3.491481338843133355E-15, 0.0000000000000000000, -1.000000000000000000 ) ) ;
#13 = CARTESIAN_POINT ( 'NONE',  ( 2.618611004132349622E-15, 0.0000000000000000000, 0.7499999999999998890 ) ) ;
#14 = DIRECTION ( 'NONE',  ( 1.000000000000000000, 0.0000000000000000000, -3.469446951953617344E-15 ) ) ;
#15 = PERSON_AND_ORGANIZATION ( #34, #149 ) ;
#16 =( NAMED_UNIT ( * ) SI_UNIT ( $, .STERADIAN. ) SOLID_ANGLE_UNIT ( ) );
#17 = ADVANCED_FACE ( 'NONE', ( #19, #140 ), #85, .T. ) ;
#18 = APPROVAL_PERSON_ORGANIZATION ( #203, #114, #223 ) ;
#19 = FACE_OUTER_BOUND ( 'NONE', #36, .T. ) ;
#20 = ADVANCED_FACE ( 'NONE', ( #230 ), #21, .T. ) ;
#21 = PLANE ( 'NONE',  #70 ) ;
#22 = APPROVAL_PERSON_ORGANIZATION ( #15, #93, #185 ) ;
#23 = PLANE ( 'NONE',  #45 ) ;
#24 = CARTESIAN_POINT ( 'NONE',  ( 2.618611004132349228E-15, 0.0000000000000000000, 0.7499999999999997780 ) ) ;
#25 = EDGE_CURVE ( 'NONE', #163, #163, #238, .T. ) ;
#26 = CARTESIAN_POINT ( 'NONE',  ( 4.425934736357605608E-15, 0.0000000000000000000, 1.267638090205028600 ) ) ;
#27 = AXIS2_PLACEMENT_3D ( 'NONE', #26, #112, #61 ) ;
#28 = CARTESIAN_POINT ( 'NONE',  ( 1.600000000000132871, 0.0000000000000000000, 37.99999999999999289 ) ) ;
#29 = CARTESIAN_POINT ( 'NONE',  ( 0.2500000000000023870, 0.0000000000000000000, 0.7499999999999988898 ) ) ;
#30 = VERTEX_POINT ( 'NONE', #219 ) ;
#31 = CC_DESIGN_DATE_AND_TIME_ASSIGNMENT ( #71, #6, ( #111 ) ) ;
#32 = APPROVAL_STATUS ( 'not_yet_approved' ) ;
#33 = CALENDAR_DATE ( 2021, 9, 11 ) ;
#34 = PERSON ( 'UNSPECIFIED', 'UNSPECIFIED', 'UNSPECIFIED', ('UNSPECIFIED'), ('UNSPECIFIED'), ('UNSPECIFIED') ) ;
#35 = APPROVAL_STATUS ( 'not_yet_approved' ) ;
#36 = EDGE_LOOP ( 'NONE', ( #38 ) ) ;
#37 = EDGE_CURVE ( 'NONE', #217, #217, #226, .T. ) ;
#38 = ORIENTED_EDGE ( 'NONE', *, *, #25, .T. ) ;
#39 = LOCAL_TIME ( 7, 59, 36.00000000000000000, #239 ) ;
#40 = AXIS2_PLACEMENT_3D ( 'NONE', #24, #195, #133 ) ;
#41 = EDGE_CURVE ( 'NONE', #146, #146, #176, .T. ) ;
#42 = CARTESIAN_POINT ( 'NONE',  ( 1.312796983405018142E-13, 0.0000000000000000000, 37.60000000000000142 ) ) ;
#43 = CARTESIAN_POINT ( 'NONE',  ( 2.634111054413196515E-14, 0.0000000000000000000, 7.544393908420492956 ) ) ;
#44 = FACE_OUTER_BOUND ( 'NONE', #155, .T. ) ;
#45 = AXIS2_PLACEMENT_3D ( 'NONE', #160, #97, #236 ) ;
#46 = FACE_OUTER_BOUND ( 'NONE', #170, .T. ) ;
#47 = DIRECTION ( 'NONE',  ( -3.491481338843133355E-15, 0.0000000000000000000, -1.000000000000000000 ) ) ;
#48 = AXIS2_PLACEMENT_3D ( 'NONE', #174, #62, #136 ) ;
#49 = CC_DESIGN_PERSON_AND_ORGANIZATION_ASSIGNMENT ( #73, #130, ( #77 ) ) ;
#50 = MECHANICAL_CONTEXT ( 'NONE', #131, 'mechanical' ) ;
#51 = PERSON_AND_ORGANIZATION_ROLE ( 'creator' ) ;
#52 = DATE_AND_TIME ( #101, #1 ) ;
#53 = ORIENTED_EDGE ( 'NONE', *, *, #2, .F. ) ;
#54 = SHAPE_DEFINITION_REPRESENTATION ( #231, #212 ) ;
#55 = ORIENTED_EDGE ( 'NONE', *, *, #125, .F. ) ;
#56 = EDGE_CURVE ( 'NONE', #30, #30, #232, .T. ) ;
#57 = FACE_OUTER_BOUND ( 'NONE', #3, .T. ) ;
#58 = AXIS2_PLACEMENT_3D ( 'NONE', #42, #7, #84 ) ;
#59 = DIRECTION ( 'NONE',  ( 3.491481338843133355E-15, -0.0000000000000000000, 1.000000000000000000 ) ) ;
#60 = MANIFOLD_SOLID_BREP ( 'Corps-Déplacer/Copier1[2]', #168 ) ;
#61 = DIRECTION ( 'NONE',  ( 1.000000000000000000, 0.0000000000000000000, -3.407851026954633398E-15 ) ) ;
#62 = DIRECTION ( 'NONE',  ( 3.491481338843133355E-15, -0.0000000000000000000, 1.000000000000000000 ) ) ;
#63 = AXIS2_PLACEMENT_3D ( 'NONE', #215, #47, #199 ) ;
#64 = DIRECTION ( 'NONE',  ( 1.000000000000000000, 0.0000000000000000000, -4.336808689942017736E-15 ) ) ;
#65 = ADVANCED_FACE ( 'NONE', ( #214, #46 ), #187, .T. ) ;
#66 = CARTESIAN_POINT ( 'NONE',  ( 0.0000000000000000000, 0.0000000000000000000, 0.0000000000000000000 ) ) ;
#67 = VERTEX_POINT ( 'NONE', #86 ) ;
#68 = DIRECTION ( 'NONE',  ( 1.000000000000000000, 0.0000000000000000000, 0.0000000000000000000 ) ) ;
#69 = APPROVAL_DATE_TIME ( #180, #135 ) ;
#70 = AXIS2_PLACEMENT_3D ( 'NONE', #95, #210, #233 ) ;
#71 = DATE_AND_TIME ( #33, #121 ) ;
#72 = ORIENTED_EDGE ( 'NONE', *, *, #222, .T. ) ;
#73 = PERSON_AND_ORGANIZATION ( #34, #149 ) ;
#74 = ORIENTED_EDGE ( 'NONE', *, *, #222, .F. ) ;
#75 = DATE_AND_TIME ( #151, #157 ) ;
#76 = EDGE_LOOP ( 'NONE', ( #5 ) ) ;
#77 = PRODUCT_DEFINITION_FORMATION_WITH_SPECIFIED_SOURCE ( 'ANY', '', #150, .NOT_KNOWN. ) ;
#78 = EDGE_LOOP ( 'NONE', ( #208 ) ) ;
#79 = MANIFOLD_SOLID_BREP ( 'Corps-Déplacer/Copier1[1]', #123 ) ;
#80 = DIRECTION ( 'NONE',  ( 3.491481338843133355E-15, -0.0000000000000000000, 1.000000000000000000 ) ) ;
#81 = AXIS2_PLACEMENT_3D ( 'NONE', #119, #12, #175 ) ;
#82 = DIRECTION ( 'NONE',  ( 3.491481338843133355E-15, -0.0000000000000000000, 1.000000000000000000 ) ) ;
#83 = FACE_OUTER_BOUND ( 'NONE', #4, .T. ) ;
#84 = DIRECTION ( 'NONE',  ( 1.000000000000000000, 0.0000000000000000000, -3.469446951953614189E-15 ) ) ;
#85 = CYLINDRICAL_SURFACE ( 'NONE', #139, 0.2499999999999997780 ) ;
#86 = CARTESIAN_POINT ( 'NONE',  ( 2.000000000000026645, 0.0000000000000000000, 7.544393908420486738 ) ) ;
#87 = AXIS2_PLACEMENT_3D ( 'NONE', #96, #211, #64 ) ;
#88 = DIRECTION ( 'NONE',  ( 3.491481338843133355E-15, -0.0000000000000000000, 1.000000000000000000 ) ) ;
#89 = DESIGN_CONTEXT ( 'detailed design', #90, 'design' ) ;
#90 = APPLICATION_CONTEXT ( 'configuration controlled 3d designs of mechanical parts and assemblies' ) ;
#91 = AXIS2_PLACEMENT_3D ( 'NONE', #126, #59, #156 ) ;
#92 = CC_DESIGN_PERSON_AND_ORGANIZATION_ASSIGNMENT ( #153, #224, ( #77 ) ) ;
#93 = APPROVAL ( #105, 'UNSPECIFIED' ) ;
#94 = ORIENTED_EDGE ( 'NONE', *, *, #25, .F. ) ;
#95 = CARTESIAN_POINT ( 'NONE',  ( 1.326762908760390423E-13, 0.0000000000000000000, 38.00000000000000000 ) ) ;
#96 = CARTESIAN_POINT ( 'NONE',  ( 1.326762908760390423E-13, 0.0000000000000000000, 38.00000000000000000 ) ) ;
#97 = DIRECTION ( 'NONE',  ( -3.491481338843133355E-15, 0.0000000000000000000, -1.000000000000000000 ) ) ;
#98 = DIRECTION ( 'NONE',  ( 3.491481338843133355E-15, -0.0000000000000000000, 1.000000000000000000 ) ) ;
#99 = UNCERTAINTY_MEASURE_WITH_UNIT (LENGTH_MEASURE( 1.000000000000000082E-05 ), #143, 'distance_accuracy_value', 'NONE');
#100 = CONICAL_SURFACE ( 'NONE', #154, 1.600000000000000089, 0.7853981633974512766 ) ;
#101 = CALENDAR_DATE ( 2021, 9, 11 ) ;
#102 = CARTESIAN_POINT ( 'NONE',  ( 2.618611004132349228E-15, 0.0000000000000000000, 0.7499999999999997780 ) ) ;
#103 = APPLICATION_PROTOCOL_DEFINITION ( 'international standard', 'config_control_design', 1994, #90 ) ;
#104 = ADVANCED_FACE ( 'NONE', ( #57, #11 ), #165, .F. ) ;
#105 = APPROVAL_STATUS ( 'not_yet_approved' ) ;
#106 = ADVANCED_FACE ( 'NONE', ( #83 ), #213, .F. ) ;
#107 = AXIS2_PLACEMENT_3D ( 'NONE', #43, #98, #113 ) ;
#108 = ORIENTED_EDGE ( 'NONE', *, *, #2, .T. ) ;
#109 = EDGE_LOOP ( 'NONE', ( #229 ) ) ;
#110 = EDGE_LOOP ( 'NONE', ( #55 ) ) ;
#111 = SECURITY_CLASSIFICATION ( '', '', #205 ) ;
#112 = DIRECTION ( 'NONE',  ( 3.491481338843133355E-15, -0.0000000000000000000, 1.000000000000000000 ) ) ;
#113 = DIRECTION ( 'NONE',  ( 1.000000000000000000, 0.0000000000000000000, -3.469446951953614189E-15 ) ) ;
#114 = APPROVAL ( #35, 'UNSPECIFIED' ) ;
#115 = CARTESIAN_POINT ( 'NONE',  ( 0.0000000000000000000, 0.0000000000000000000, 0.0000000000000000000 ) ) ;
#116 = LOCAL_TIME ( 7, 59, 36.00000000000000000, #242 ) ;
#117 = CARTESIAN_POINT ( 'NONE',  ( 1.326762908760390423E-13, 0.0000000000000000000, 38.00000000000000000 ) ) ;
#118 = CC_DESIGN_PERSON_AND_ORGANIZATION_ASSIGNMENT ( #186, #51, ( #141 ) ) ;
#119 = CARTESIAN_POINT ( 'NONE',  ( 2.618611004132349622E-15, -8.131516293641280790E-17, 0.7499999999999998890 ) ) ;
#120 = PERSON_AND_ORGANIZATION_ROLE ( 'design_owner' ) ;
#121 = LOCAL_TIME ( 7, 59, 36.00000000000000000, #207 ) ;
#122 = VERTEX_POINT ( 'NONE', #124 ) ;
#123 = CLOSED_SHELL ( 'NONE', ( #173, #164, #20, #104, #65, #193 ) ) ;
#124 = CARTESIAN_POINT ( 'NONE',  ( 0.3181483474218642638, 0.0000000000000000000, 1.267638090205027490 ) ) ;
#125 = EDGE_CURVE ( 'NONE', #122, #122, #209, .T. ) ;
#126 = CARTESIAN_POINT ( 'NONE',  ( 2.634111054413196515E-14, 0.0000000000000000000, 7.544393908420492956 ) ) ;
#127 = PERSON_AND_ORGANIZATION_ROLE ( 'classification_officer' ) ;
#128 = CC_DESIGN_APPROVAL ( #114, ( #111 ) ) ;
#129 = ORIENTED_EDGE ( 'NONE', *, *, #37, .F. ) ;
#130 = PERSON_AND_ORGANIZATION_ROLE ( 'design_supplier' ) ;
#131 = APPLICATION_CONTEXT ( 'configuration controlled 3d designs of mechanical parts and assemblies' ) ;
#132 = ORIENTED_EDGE ( 'NONE', *, *, #37, .T. ) ;
#133 = DIRECTION ( 'NONE',  ( 1.000000000000000000, 0.0000000000000000000, -3.469446951953617344E-15 ) ) ;
#134 = CC_DESIGN_APPROVAL ( #135, ( #77 ) ) ;
#135 = APPROVAL ( #32, 'UNSPECIFIED' ) ;
#136 = DIRECTION ( 'NONE',  ( 1.000000000000000000, 0.0000000000000000000, -3.491481338843133355E-15 ) ) ;
#137 = DIRECTION ( 'NONE',  ( -1.000000000000000000, 0.0000000000000000000, 4.336808689942017736E-15 ) ) ;
#138 = FACE_OUTER_BOUND ( 'NONE', #172, .T. ) ;
#139 = AXIS2_PLACEMENT_3D ( 'NONE', #190, #80, #235 ) ;
#140 = FACE_OUTER_BOUND ( 'NONE', #152, .T. ) ;
#141 = PRODUCT_DEFINITION ( 'UNKNOWN', '', #77, #89 ) ;
#142 = APPROVAL_DATE_TIME ( #52, #93 ) ;
#143 =( LENGTH_UNIT ( ) NAMED_UNIT ( * ) SI_UNIT ( .MILLI., .METRE. ) );
#144 = CC_DESIGN_SECURITY_CLASSIFICATION ( #111, ( #77 ) ) ;
#145 = CC_DESIGN_PERSON_AND_ORGANIZATION_ASSIGNMENT ( #167, #120, ( #150 ) ) ;
#146 = VERTEX_POINT ( 'NONE', #28 ) ;
#147 = CALENDAR_DATE ( 2021, 9, 11 ) ;
#148 = CC_DESIGN_APPROVAL ( #93, ( #141 ) ) ;
#149 = ORGANIZATION ( 'UNSPECIFIED', 'UNSPECIFIED', '' ) ;
#150 = PRODUCT ( '334917', '334917', '', ( #50 ) ) ;
#151 = CALENDAR_DATE ( 2021, 9, 11 ) ;
#152 = EDGE_LOOP ( 'NONE', ( #129 ) ) ;
#153 = PERSON_AND_ORGANIZATION ( #34, #149 ) ;
#154 = AXIS2_PLACEMENT_3D ( 'NONE', #117, #178, #137 ) ;
#155 = EDGE_LOOP ( 'NONE', ( #108 ) ) ;
#156 = DIRECTION ( 'NONE',  ( 1.000000000000000000, 0.0000000000000000000, -3.469446951953614189E-15 ) ) ;
#157 = LOCAL_TIME ( 7, 59, 36.00000000000000000, #169 ) ;
#158 = FACE_BOUND ( 'NONE', #78, .T. ) ;
#159 = DIRECTION ( 'NONE',  ( 1.000000000000000000, 0.0000000000000000000, -3.491481338843133355E-15 ) ) ;
#160 = CARTESIAN_POINT ( 'NONE',  ( 2.618611004132349622E-15, -8.131516293641280790E-17, 0.7499999999999998890 ) ) ;
#161 = APPROVAL_PERSON_ORGANIZATION ( #220, #135, #162 ) ;
#162 = APPROVAL_ROLE ( '' ) ;
#163 = VERTEX_POINT ( 'NONE', #240 ) ;
#164 = ADVANCED_FACE ( 'NONE', ( #10, #158 ), #100, .T. ) ;
#165 = TOROIDAL_SURFACE ( 'NONE', #171, 2.250000000000000000, 2.000000000000000000 ) ;
#166 = COORDINATED_UNIVERSAL_TIME_OFFSET ( 1, 0, .AHEAD. ) ;
#167 = PERSON_AND_ORGANIZATION ( #34, #149 ) ;
#168 = CLOSED_SHELL ( 'NONE', ( #196, #17, #106 ) ) ;
#169 = COORDINATED_UNIVERSAL_TIME_OFFSET ( 1, 0, .AHEAD. ) ;
#170 = EDGE_LOOP ( 'NONE', ( #53 ) ) ;
#171 = AXIS2_PLACEMENT_3D ( 'NONE', #13, #82, #189 ) ;
#172 = EDGE_LOOP ( 'NONE', ( #94 ) ) ;
#173 = ADVANCED_FACE ( 'NONE', ( #179, #44 ), #177, .T. ) ;
#174 = CARTESIAN_POINT ( 'NONE',  ( -9.831781012932406109E-37, 0.0000000000000000000, -2.815934000148506281E-22 ) ) ;
#175 = DIRECTION ( 'NONE',  ( -1.000000000000000000, 0.0000000000000000000, 3.491481338843133355E-15 ) ) ;
#176 = CIRCLE ( 'NONE', #87, 1.600000000000000089 ) ;
#177 = CYLINDRICAL_SURFACE ( 'NONE', #218, 2.000000000000000000 ) ;
#178 = DIRECTION ( 'NONE',  ( -3.491481338843133355E-15, 0.0000000000000000000, -1.000000000000000000 ) ) ;
#179 = FACE_OUTER_BOUND ( 'NONE', #76, .T. ) ;
#180 = DATE_AND_TIME ( #216, #39 ) ;
#181 = CC_DESIGN_DATE_AND_TIME_ASSIGNMENT ( #200, #243, ( #141 ) ) ;
#182 = VERTEX_POINT ( 'NONE', #29 ) ;
#183 = APPLICATION_PROTOCOL_DEFINITION ( 'international standard', 'config_control_design', 1994, #131 ) ;
#184 = AXIS2_PLACEMENT_3D ( 'NONE', #102, #88, #14 ) ;
#185 = APPROVAL_ROLE ( '' ) ;
#186 = PERSON_AND_ORGANIZATION ( #34, #149 ) ;
#187 = CONICAL_SURFACE ( 'NONE', #107, 2.000000000000000000, 0.2617993877991428575 ) ;
#188 = EDGE_LOOP ( 'NONE', ( #225 ) ) ;
#189 = DIRECTION ( 'NONE',  ( 1.000000000000000000, 0.0000000000000000000, -3.491481338843132961E-15 ) ) ;
#190 = CARTESIAN_POINT ( 'NONE',  ( 0.0000000000000000000, 0.0000000000000000000, 0.0000000000000000000 ) ) ;
#191 = DIRECTION ( 'NONE',  ( 3.491481338843133355E-15, -0.0000000000000000000, 1.000000000000000000 ) ) ;
#192 = CIRCLE ( 'NONE', #91, 2.000000000000000000 ) ;
#193 = ADVANCED_FACE ( 'NONE', ( #194 ), #23, .T. ) ;
#194 = FACE_OUTER_BOUND ( 'NONE', #202, .T. ) ;
#195 = DIRECTION ( 'NONE',  ( 3.491481338843133355E-15, -0.0000000000000000000, 1.000000000000000000 ) ) ;
#196 = ADVANCED_FACE ( 'NONE', ( #138 ), #237, .T. ) ;
#197 = CARTESIAN_POINT ( 'NONE',  ( 0.2500000000000023870, 0.0000000000000000000, 0.7499999999999988898 ) ) ;
#198 = CIRCLE ( 'NONE', #184, 0.2499999999999997780 ) ;
#199 = DIRECTION ( 'NONE',  ( -1.000000000000000000, 0.0000000000000000000, 3.491481338843133355E-15 ) ) ;
#200 = DATE_AND_TIME ( #147, #116 ) ;
#201 =( NAMED_UNIT ( * ) PLANE_ANGLE_UNIT ( ) SI_UNIT ( $, .RADIAN. ) );
#202 = EDGE_LOOP ( 'NONE', ( #74 ) ) ;
#203 = PERSON_AND_ORGANIZATION ( #34, #149 ) ;
#204 = ORIENTED_EDGE ( 'NONE', *, *, #56, .T. ) ;
#205 = SECURITY_CLASSIFICATION_LEVEL ( 'unclassified' ) ;
#206 = EDGE_LOOP ( 'NONE', ( #204 ) ) ;
#207 = COORDINATED_UNIVERSAL_TIME_OFFSET ( 1, 0, .AHEAD. ) ;
#208 = ORIENTED_EDGE ( 'NONE', *, *, #41, .F. ) ;
#209 = CIRCLE ( 'NONE', #27, 0.3181483474218598229 ) ;
#210 = DIRECTION ( 'NONE',  ( 3.491481338843133355E-15, -0.0000000000000000000, 1.000000000000000000 ) ) ;
#211 = DIRECTION ( 'NONE',  ( 3.491481338843133355E-15, -0.0000000000000000000, 1.000000000000000000 ) ) ;
#212 = ADVANCED_BREP_SHAPE_REPRESENTATION ( '334917', ( #79, #60, #221 ), #9 ) ;
#213 = PLANE ( 'NONE',  #81 ) ;
#214 = FACE_BOUND ( 'NONE', #109, .T. ) ;
#215 = CARTESIAN_POINT ( 'NONE',  ( -4.915890506466203054E-37, 0.0000000000000000000, -1.407967000074253141E-22 ) ) ;
#216 = CALENDAR_DATE ( 2021, 9, 11 ) ;
#217 = VERTEX_POINT ( 'NONE', #197 ) ;
#218 = AXIS2_PLACEMENT_3D ( 'NONE', #115, #191, #159 ) ;
#219 = CARTESIAN_POINT ( 'NONE',  ( 2.000000000000131450, 0.0000000000000000000, 37.59999999999999432 ) ) ;
#220 = PERSON_AND_ORGANIZATION ( #34, #149 ) ;
#221 = AXIS2_PLACEMENT_3D ( 'NONE', #66, #241, #68 ) ;
#222 = EDGE_CURVE ( 'NONE', #182, #182, #198, .T. ) ;
#223 = APPROVAL_ROLE ( '' ) ;
#224 = PERSON_AND_ORGANIZATION_ROLE ( 'creator' ) ;
#225 = ORIENTED_EDGE ( 'NONE', *, *, #41, .T. ) ;
#226 = CIRCLE ( 'NONE', #40, 0.2499999999999997780 ) ;
#227 = APPROVAL_DATE_TIME ( #75, #114 ) ;
#228 = PERSON_AND_ORGANIZATION ( #34, #149 ) ;
#229 = ORIENTED_EDGE ( 'NONE', *, *, #125, .T. ) ;
#230 = FACE_OUTER_BOUND ( 'NONE', #188, .T. ) ;
#231 = PRODUCT_DEFINITION_SHAPE ( 'NONE', 'NONE',  #141 ) ;
#232 = CIRCLE ( 'NONE', #58, 2.000000000000000000 ) ;
#233 = DIRECTION ( 'NONE',  ( 1.000000000000000000, 0.0000000000000000000, -3.491481338843133355E-15 ) ) ;
#234 = PRODUCT_RELATED_PRODUCT_CATEGORY ( 'detail', '', ( #150 ) ) ;
#235 = DIRECTION ( 'NONE',  ( 1.000000000000000000, 0.0000000000000000000, -3.491481338843133355E-15 ) ) ;
#236 = DIRECTION ( 'NONE',  ( -1.000000000000000000, 0.0000000000000000000, 3.491481338843133355E-15 ) ) ;
#237 = PLANE ( 'NONE',  #63 ) ;
#238 = CIRCLE ( 'NONE', #48, 0.2499999999999997780 ) ;
#239 = COORDINATED_UNIVERSAL_TIME_OFFSET ( 1, 0, .AHEAD. ) ;
#240 = CARTESIAN_POINT ( 'NONE',  ( 0.2499999999999997780, 0.0000000000000000000, -8.728706163041825261E-16 ) ) ;
#241 = DIRECTION ( 'NONE',  ( 0.0000000000000000000, 0.0000000000000000000, 1.000000000000000000 ) ) ;
#242 = COORDINATED_UNIVERSAL_TIME_OFFSET ( 1, 0, .AHEAD. ) ;
#243 = DATE_TIME_ROLE ( 'creation_date' ) ;
ENDSEC;
END-ISO-10303-21;
