ISO-10303-21;
HEADER;
FILE_DESCRIPTION (( 'STEP AP203' ),
    '1' );
FILE_NAME ('334916.step',
    '2021-11-09T06:59:36',
    ( '' ),
    ( '' ),
    'SwSTEP 2.0',
    'SolidWorks 2019',
    '' );
FILE_SCHEMA (( 'CONFIG_CONTROL_DESIGN' ));
ENDSEC;

DATA;
#1 = DIRECTION ( 'NONE',  ( 1.000000000000000000, 0.0000000000000000000, -3.491481338843133355E-15 ) ) ;
#2 = CALENDAR_DATE ( 2021, 9, 11 ) ;
#3 = ADVANCED_FACE ( 'NONE', ( #189 ), #41, .T. ) ;
#4 = APPROVAL_STATUS ( 'not_yet_approved' ) ;
#5 = CC_DESIGN_SECURITY_CLASSIFICATION ( #24, ( #186 ) ) ;
#6 = DIRECTION ( 'NONE',  ( 3.491481338843133355E-15, -0.0000000000000000000, 1.000000000000000000 ) ) ;
#7 = FACE_OUTER_BOUND ( 'NONE', #149, .T. ) ;
#8 = DIRECTION ( 'NONE',  ( 1.000000000000000000, 0.0000000000000000000, -3.469446951953614189E-15 ) ) ;
#9 = LOCAL_TIME ( 7, 59, 36.00000000000000000, #158 ) ;
#10 = CARTESIAN_POINT ( 'NONE',  ( -4.915890506466203054E-37, 0.0000000000000000000, -1.407967000074253141E-22 ) ) ;
#11 = PRODUCT_DEFINITION_SHAPE ( 'NONE', 'NONE',  #236 ) ;
#12 = PRODUCT ( '334916', '334916', '', ( #105 ) ) ;
#13 = ORIENTED_EDGE ( 'NONE', *, *, #135, .T. ) ;
#14 = APPROVAL_PERSON_ORGANIZATION ( #58, #62, #37 ) ;
#15 = CARTESIAN_POINT ( 'NONE',  ( 0.0000000000000000000, 0.0000000000000000000, 0.0000000000000000000 ) ) ;
#16 = APPROVAL_STATUS ( 'not_yet_approved' ) ;
#17 = PERSON_AND_ORGANIZATION ( #219, #228 ) ;
#18 = EDGE_LOOP ( 'NONE', ( #87 ) ) ;
#19 = CC_DESIGN_PERSON_AND_ORGANIZATION_ASSIGNMENT ( #208, #136, ( #236 ) ) ;
#20 = CIRCLE ( 'NONE', #76, 1.600000000000000089 ) ;
#21 = FACE_OUTER_BOUND ( 'NONE', #212, .T. ) ;
#22 = PLANE ( 'NONE',  #177 ) ;
#23 = FACE_OUTER_BOUND ( 'NONE', #29, .T. ) ;
#24 = SECURITY_CLASSIFICATION ( '', '', #185 ) ;
#25 = CARTESIAN_POINT ( 'NONE',  ( 2.094888803305879224E-15, -6.505213034913024139E-17, 0.5999999999999998668 ) ) ;
#26 = PRODUCT_RELATED_PRODUCT_CATEGORY ( 'detail', '', ( #12 ) ) ;
#27 = DIRECTION ( 'NONE',  ( 1.000000000000000000, 0.0000000000000000000, -3.252606517456511724E-15 ) ) ;
#28 = VERTEX_POINT ( 'NONE', #167 ) ;
#29 = EDGE_LOOP ( 'NONE', ( #13 ) ) ;
#30 = ADVANCED_BREP_SHAPE_REPRESENTATION ( '334916', ( #77, #234, #59 ), #210 ) ;
#31 = ORIENTED_EDGE ( 'NONE', *, *, #213, .F. ) ;
#32 = ORIENTED_EDGE ( 'NONE', *, *, #48, .F. ) ;
#33 = EDGE_CURVE ( 'NONE', #72, #72, #20, .T. ) ;
#34 = EDGE_LOOP ( 'NONE', ( #106 ) ) ;
#35 = VERTEX_POINT ( 'NONE', #238 ) ;
#36 = FACE_OUTER_BOUND ( 'NONE', #34, .T. ) ;
#37 = APPROVAL_ROLE ( '' ) ;
#38 = APPROVAL_DATE_TIME ( #175, #193 ) ;
#39 = ADVANCED_FACE ( 'NONE', ( #7 ), #22, .F. ) ;
#40 = CALENDAR_DATE ( 2021, 9, 11 ) ;
#41 = PLANE ( 'NONE',  #91 ) ;
#42 = CARTESIAN_POINT ( 'NONE',  ( 3.902212535531135605E-15, 0.0000000000000000000, 1.117638090205028467 ) ) ;
#43 = CC_DESIGN_APPROVAL ( #62, ( #24 ) ) ;
#44 = CARTESIAN_POINT ( 'NONE',  ( 1.312796983405018142E-13, 0.0000000000000000000, 37.60000000000000142 ) ) ;
#45 = EDGE_CURVE ( 'NONE', #164, #164, #67, .T. ) ;
#46 = CYLINDRICAL_SURFACE ( 'NONE', #54, 0.2000000000000000944 ) ;
#47 =( LENGTH_UNIT ( ) NAMED_UNIT ( * ) SI_UNIT ( .MILLI., .METRE. ) );
#48 = EDGE_CURVE ( 'NONE', #28, #28, #215, .T. ) ;
#49 =( NAMED_UNIT ( * ) SI_UNIT ( $, .STERADIAN. ) SOLID_ANGLE_UNIT ( ) );
#50 = FACE_OUTER_BOUND ( 'NONE', #88, .T. ) ;
#51 = APPLICATION_PROTOCOL_DEFINITION ( 'international standard', 'config_control_design', 1994, #144 ) ;
#52 = DIRECTION ( 'NONE',  ( 1.000000000000000000, 0.0000000000000000000, -3.469446951953614189E-15 ) ) ;
#53 = FACE_OUTER_BOUND ( 'NONE', #170, .T. ) ;
#54 = AXIS2_PLACEMENT_3D ( 'NONE', #99, #70, #145 ) ;
#55 = FACE_BOUND ( 'NONE', #126, .T. ) ;
#56 = CC_DESIGN_PERSON_AND_ORGANIZATION_ASSIGNMENT ( #187, #78, ( #24 ) ) ;
#57 = PERSON_AND_ORGANIZATION ( #219, #228 ) ;
#58 = PERSON_AND_ORGANIZATION ( #219, #228 ) ;
#59 = AXIS2_PLACEMENT_3D ( 'NONE', #15, #122, #165 ) ;
#60 = CALENDAR_DATE ( 2021, 9, 11 ) ;
#61 = DIRECTION ( 'NONE',  ( 1.000000000000000000, 0.0000000000000000000, -3.491481338843133355E-15 ) ) ;
#62 = APPROVAL ( #4, 'UNSPECIFIED' ) ;
#63 = CLOSED_SHELL ( 'NONE', ( #205, #127, #98, #233, #172, #151 ) ) ;
#64 = CARTESIAN_POINT ( 'NONE',  ( 0.0000000000000000000, 0.0000000000000000000, 0.0000000000000000000 ) ) ;
#65 = EDGE_CURVE ( 'NONE', #231, #231, #97, .T. ) ;
#66 = CYLINDRICAL_SURFACE ( 'NONE', #160, 2.000000000000000000 ) ;
#67 = CIRCLE ( 'NONE', #129, 0.2000000000000000944 ) ;
#68 = DIRECTION ( 'NONE',  ( -1.000000000000000000, 0.0000000000000000000, 3.491481338843133355E-15 ) ) ;
#69 = PERSON_AND_ORGANIZATION ( #219, #228 ) ;
#70 = DIRECTION ( 'NONE',  ( 3.491481338843133355E-15, -0.0000000000000000000, 1.000000000000000000 ) ) ;
#71 = EDGE_LOOP ( 'NONE', ( #134 ) ) ;
#72 = VERTEX_POINT ( 'NONE', #82 ) ;
#73 = DIRECTION ( 'NONE',  ( -3.491481338843133355E-15, 0.0000000000000000000, -1.000000000000000000 ) ) ;
#74 = APPROVAL ( #16, 'UNSPECIFIED' ) ;
#75 = DIRECTION ( 'NONE',  ( -3.491481338843133355E-15, 0.0000000000000000000, -1.000000000000000000 ) ) ;
#76 = AXIS2_PLACEMENT_3D ( 'NONE', #104, #181, #191 ) ;
#77 = MANIFOLD_SOLID_BREP ( 'Corps-Déplacer/Copier1[1]', #63 ) ;
#78 = PERSON_AND_ORGANIZATION_ROLE ( 'classification_officer' ) ;
#79 = CALENDAR_DATE ( 2021, 9, 11 ) ;
#80 = PERSON_AND_ORGANIZATION_ROLE ( 'creator' ) ;
#81 = APPROVAL_PERSON_ORGANIZATION ( #173, #74, #133 ) ;
#82 = CARTESIAN_POINT ( 'NONE',  ( 1.600000000000132871, 0.0000000000000000000, 37.99999999999999289 ) ) ;
#83 = DIRECTION ( 'NONE',  ( -3.491481338843133355E-15, 0.0000000000000000000, -1.000000000000000000 ) ) ;
#84 = DIRECTION ( 'NONE',  ( 1.000000000000000000, 0.0000000000000000000, -3.252606517456511724E-15 ) ) ;
#85 = AXIS2_PLACEMENT_3D ( 'NONE', #141, #192, #222 ) ;
#86 = DIRECTION ( 'NONE',  ( 3.491481338843133355E-15, -0.0000000000000000000, 1.000000000000000000 ) ) ;
#87 = ORIENTED_EDGE ( 'NONE', *, *, #65, .T. ) ;
#88 = EDGE_LOOP ( 'NONE', ( #31 ) ) ;
#89 = AXIS2_PLACEMENT_3D ( 'NONE', #241, #176, #1 ) ;
#90 = FACE_OUTER_BOUND ( 'NONE', #197, .T. ) ;
#91 = AXIS2_PLACEMENT_3D ( 'NONE', #10, #194, #68 ) ;
#92 = AXIS2_PLACEMENT_3D ( 'NONE', #42, #200, #108 ) ;
#93 = APPROVAL_DATE_TIME ( #227, #74 ) ;
#94 = UNCERTAINTY_MEASURE_WITH_UNIT (LENGTH_MEASURE( 1.000000000000000082E-05 ), #47, 'distance_accuracy_value', 'NONE');
#95 = COORDINATED_UNIVERSAL_TIME_OFFSET ( 1, 0, .AHEAD. ) ;
#96 = EDGE_LOOP ( 'NONE', ( #168 ) ) ;
#97 = CIRCLE ( 'NONE', #138, 2.000000000000000000 ) ;
#98 = ADVANCED_FACE ( 'NONE', ( #36 ), #112, .T. ) ;
#99 = CARTESIAN_POINT ( 'NONE',  ( 0.0000000000000000000, 0.0000000000000000000, 0.0000000000000000000 ) ) ;
#100 = DIRECTION ( 'NONE',  ( -1.000000000000000000, 0.0000000000000000000, 3.491481338843133355E-15 ) ) ;
#101 = AXIS2_PLACEMENT_3D ( 'NONE', #182, #73, #196 ) ;
#102 = EDGE_CURVE ( 'NONE', #184, #184, #214, .T. ) ;
#103 = PLANE ( 'NONE',  #206 ) ;
#104 = CARTESIAN_POINT ( 'NONE',  ( 1.326762908760390423E-13, 0.0000000000000000000, 38.00000000000000000 ) ) ;
#105 = MECHANICAL_CONTEXT ( 'NONE', #223, 'mechanical' ) ;
#106 = ORIENTED_EDGE ( 'NONE', *, *, #33, .T. ) ;
#107 = CARTESIAN_POINT ( 'NONE',  ( -9.831781012932406109E-37, 0.0000000000000000000, -2.815934000148506281E-22 ) ) ;
#108 = DIRECTION ( 'NONE',  ( 1.000000000000000000, 0.0000000000000000000, -3.234633911891467127E-15 ) ) ;
#109 = DIRECTION ( 'NONE',  ( 3.491481338843133355E-15, -0.0000000000000000000, 1.000000000000000000 ) ) ;
#110 = LOCAL_TIME ( 7, 59, 36.00000000000000000, #161 ) ;
#111 = ADVANCED_FACE ( 'NONE', ( #217, #50 ), #46, .T. ) ;
#112 = PLANE ( 'NONE',  #89 ) ;
#113 = CIRCLE ( 'NONE', #224, 0.2000000000000000944 ) ;
#114 = PERSON_AND_ORGANIZATION_ROLE ( 'design_supplier' ) ;
#115 = SHAPE_DEFINITION_REPRESENTATION ( #11, #30 ) ;
#116 = CC_DESIGN_PERSON_AND_ORGANIZATION_ASSIGNMENT ( #69, #143, ( #12 ) ) ;
#117 = AXIS2_PLACEMENT_3D ( 'NONE', #163, #109, #8 ) ;
#118 =( NAMED_UNIT ( * ) PLANE_ANGLE_UNIT ( ) SI_UNIT ( $, .RADIAN. ) );
#119 = LOCAL_TIME ( 7, 59, 36.00000000000000000, #226 ) ;
#120 = VERTEX_POINT ( 'NONE', #216 ) ;
#121 = EDGE_LOOP ( 'NONE', ( #159 ) ) ;
#122 = DIRECTION ( 'NONE',  ( 0.0000000000000000000, 0.0000000000000000000, 1.000000000000000000 ) ) ;
#123 = CC_DESIGN_PERSON_AND_ORGANIZATION_ASSIGNMENT ( #17, #114, ( #186 ) ) ;
#124 = ORIENTED_EDGE ( 'NONE', *, *, #45, .T. ) ;
#125 = CC_DESIGN_APPROVAL ( #193, ( #236 ) ) ;
#126 = EDGE_LOOP ( 'NONE', ( #152 ) ) ;
#127 = ADVANCED_FACE ( 'NONE', ( #146, #148 ), #166, .T. ) ;
#128 = CARTESIAN_POINT ( 'NONE',  ( 0.2000000000000021760, 0.0000000000000000000, 0.5999999999999989786 ) ) ;
#129 = AXIS2_PLACEMENT_3D ( 'NONE', #198, #86, #27 ) ;
#130 = DATE_TIME_ROLE ( 'creation_date' ) ;
#131 = CALENDAR_DATE ( 2021, 9, 11 ) ;
#132 = LOCAL_TIME ( 7, 59, 36.00000000000000000, #95 ) ;
#133 = APPROVAL_ROLE ( '' ) ;
#134 = ORIENTED_EDGE ( 'NONE', *, *, #65, .F. ) ;
#135 = EDGE_CURVE ( 'NONE', #120, #120, #202, .T. ) ;
#136 = PERSON_AND_ORGANIZATION_ROLE ( 'creator' ) ;
#137 = DESIGN_CONTEXT ( 'detailed design', #144, 'design' ) ;
#138 = AXIS2_PLACEMENT_3D ( 'NONE', #44, #150, #52 ) ;
#139 = CARTESIAN_POINT ( 'NONE',  ( 2.094888803305879224E-15, -6.505213034913024139E-17, 0.5999999999999998668 ) ) ;
#140 = CARTESIAN_POINT ( 'NONE',  ( 2.000000000000131450, 0.0000000000000000000, 37.59999999999999432 ) ) ;
#141 = CARTESIAN_POINT ( 'NONE',  ( 2.646890763081756838E-14, 0.0000000000000000000, 7.580996448798941856 ) ) ;
#142 = DIRECTION ( 'NONE',  ( -1.000000000000000000, 0.0000000000000000000, 3.491481338843133355E-15 ) ) ;
#143 = PERSON_AND_ORGANIZATION_ROLE ( 'design_owner' ) ;
#144 = APPLICATION_CONTEXT ( 'configuration controlled 3d designs of mechanical parts and assemblies' ) ;
#145 = DIRECTION ( 'NONE',  ( 1.000000000000000000, 0.0000000000000000000, -3.491481338843133355E-15 ) ) ;
#146 = FACE_OUTER_BOUND ( 'NONE', #18, .T. ) ;
#147 = LOCAL_TIME ( 7, 59, 36.00000000000000000, #157 ) ;
#148 = FACE_BOUND ( 'NONE', #239, .T. ) ;
#149 = EDGE_LOOP ( 'NONE', ( #169 ) ) ;
#150 = DIRECTION ( 'NONE',  ( 3.491481338843133355E-15, -0.0000000000000000000, 1.000000000000000000 ) ) ;
#151 = ADVANCED_FACE ( 'NONE', ( #21 ), #103, .T. ) ;
#152 = ORIENTED_EDGE ( 'NONE', *, *, #102, .T. ) ;
#153 = CARTESIAN_POINT ( 'NONE',  ( 0.2681483474218639973, 0.0000000000000000000, 1.117638090205027801 ) ) ;
#154 = CC_DESIGN_APPROVAL ( #74, ( #186 ) ) ;
#155 = PERSON_AND_ORGANIZATION ( #219, #228 ) ;
#156 = CC_DESIGN_PERSON_AND_ORGANIZATION_ASSIGNMENT ( #155, #80, ( #186 ) ) ;
#157 = COORDINATED_UNIVERSAL_TIME_OFFSET ( 1, 0, .AHEAD. ) ;
#158 = COORDINATED_UNIVERSAL_TIME_OFFSET ( 1, 0, .AHEAD. ) ;
#159 = ORIENTED_EDGE ( 'NONE', *, *, #102, .F. ) ;
#160 = AXIS2_PLACEMENT_3D ( 'NONE', #64, #178, #232 ) ;
#161 = COORDINATED_UNIVERSAL_TIME_OFFSET ( 1, 0, .AHEAD. ) ;
#162 = AXIS2_PLACEMENT_3D ( 'NONE', #240, #221, #204 ) ;
#163 = CARTESIAN_POINT ( 'NONE',  ( 2.646890763081756838E-14, 0.0000000000000000000, 7.580996448798941856 ) ) ;
#164 = VERTEX_POINT ( 'NONE', #128 ) ;
#165 = DIRECTION ( 'NONE',  ( 1.000000000000000000, 0.0000000000000000000, 0.0000000000000000000 ) ) ;
#166 = CONICAL_SURFACE ( 'NONE', #101, 1.600000000000000089, 0.7853981633974512766 ) ;
#167 = CARTESIAN_POINT ( 'NONE',  ( 0.2000000000000000944, 0.0000000000000000000, -6.982965493620270416E-16 ) ) ;
#168 = ORIENTED_EDGE ( 'NONE', *, *, #48, .T. ) ;
#169 = ORIENTED_EDGE ( 'NONE', *, *, #213, .T. ) ;
#170 = EDGE_LOOP ( 'NONE', ( #124 ) ) ;
#171 = FACE_OUTER_BOUND ( 'NONE', #71, .T. ) ;
#172 = ADVANCED_FACE ( 'NONE', ( #55, #90 ), #190, .T. ) ;
#173 = PERSON_AND_ORGANIZATION ( #219, #228 ) ;
#174 = APPROVAL_DATE_TIME ( #207, #62 ) ;
#175 = DATE_AND_TIME ( #79, #9 ) ;
#176 = DIRECTION ( 'NONE',  ( 3.491481338843133355E-15, -0.0000000000000000000, 1.000000000000000000 ) ) ;
#177 = AXIS2_PLACEMENT_3D ( 'NONE', #139, #83, #142 ) ;
#178 = DIRECTION ( 'NONE',  ( 3.491481338843133355E-15, -0.0000000000000000000, 1.000000000000000000 ) ) ;
#179 = APPLICATION_PROTOCOL_DEFINITION ( 'international standard', 'config_control_design', 1994, #223 ) ;
#180 = CC_DESIGN_DATE_AND_TIME_ASSIGNMENT ( #225, #130, ( #236 ) ) ;
#181 = DIRECTION ( 'NONE',  ( 3.491481338843133355E-15, -0.0000000000000000000, 1.000000000000000000 ) ) ;
#182 = CARTESIAN_POINT ( 'NONE',  ( 1.326762908760390423E-13, 0.0000000000000000000, 38.00000000000000000 ) ) ;
#183 = TOROIDAL_SURFACE ( 'NONE', #162, 2.200000000000000178, 2.000000000000000000 ) ;
#184 = VERTEX_POINT ( 'NONE', #153 ) ;
#185 = SECURITY_CLASSIFICATION_LEVEL ( 'unclassified' ) ;
#186 = PRODUCT_DEFINITION_FORMATION_WITH_SPECIFIED_SOURCE ( 'ANY', '', #12, .NOT_KNOWN. ) ;
#187 = PERSON_AND_ORGANIZATION ( #219, #228 ) ;
#188 = DATE_TIME_ROLE ( 'classification_date' ) ;
#189 = FACE_OUTER_BOUND ( 'NONE', #237, .T. ) ;
#190 = CONICAL_SURFACE ( 'NONE', #85, 2.000000000000000000, 0.2617993877991428020 ) ;
#191 = DIRECTION ( 'NONE',  ( 1.000000000000000000, 0.0000000000000000000, -4.336808689942017736E-15 ) ) ;
#192 = DIRECTION ( 'NONE',  ( 3.491481338843133355E-15, -0.0000000000000000000, 1.000000000000000000 ) ) ;
#193 = APPROVAL ( #209, 'UNSPECIFIED' ) ;
#194 = DIRECTION ( 'NONE',  ( -3.491481338843133355E-15, 0.0000000000000000000, -1.000000000000000000 ) ) ;
#195 = FACE_OUTER_BOUND ( 'NONE', #121, .T. ) ;
#196 = DIRECTION ( 'NONE',  ( -1.000000000000000000, 0.0000000000000000000, 4.336808689942017736E-15 ) ) ;
#197 = EDGE_LOOP ( 'NONE', ( #235 ) ) ;
#198 = CARTESIAN_POINT ( 'NONE',  ( 2.094888803305878435E-15, 0.0000000000000000000, 0.5999999999999996447 ) ) ;
#199 = CARTESIAN_POINT ( 'NONE',  ( 2.094888803305878435E-15, 0.0000000000000000000, 0.5999999999999996447 ) ) ;
#200 = DIRECTION ( 'NONE',  ( 3.491481338843133355E-15, -0.0000000000000000000, 1.000000000000000000 ) ) ;
#201 = CLOSED_SHELL ( 'NONE', ( #3, #111, #39 ) ) ;
#202 = CIRCLE ( 'NONE', #117, 2.000000000000000000 ) ;
#203 = ORIENTED_EDGE ( 'NONE', *, *, #45, .F. ) ;
#204 = DIRECTION ( 'NONE',  ( 1.000000000000000000, 0.0000000000000000000, -3.491481338843133750E-15 ) ) ;
#205 = ADVANCED_FACE ( 'NONE', ( #171, #23 ), #66, .T. ) ;
#206 = AXIS2_PLACEMENT_3D ( 'NONE', #25, #75, #100 ) ;
#207 = DATE_AND_TIME ( #40, #110 ) ;
#208 = PERSON_AND_ORGANIZATION ( #219, #228 ) ;
#209 = APPROVAL_STATUS ( 'not_yet_approved' ) ;
#210 =( GEOMETRIC_REPRESENTATION_CONTEXT ( 3 ) GLOBAL_UNCERTAINTY_ASSIGNED_CONTEXT ( ( #94 ) ) GLOBAL_UNIT_ASSIGNED_CONTEXT ( ( #47, #118, #49 ) ) REPRESENTATION_CONTEXT ( 'NONE', 'WORKASPACE' ) );
#211 = APPROVAL_ROLE ( '' ) ;
#212 = EDGE_LOOP ( 'NONE', ( #203 ) ) ;
#213 = EDGE_CURVE ( 'NONE', #35, #35, #113, .T. ) ;
#214 = CIRCLE ( 'NONE', #92, 0.2681483474218601115 ) ;
#215 = CIRCLE ( 'NONE', #230, 0.2000000000000000944 ) ;
#216 = CARTESIAN_POINT ( 'NONE',  ( 2.000000000000026645, 0.0000000000000000000, 7.580996448798934750 ) ) ;
#217 = FACE_OUTER_BOUND ( 'NONE', #96, .T. ) ;
#218 = CC_DESIGN_DATE_AND_TIME_ASSIGNMENT ( #243, #188, ( #24 ) ) ;
#219 = PERSON ( 'UNSPECIFIED', 'UNSPECIFIED', 'UNSPECIFIED', ('UNSPECIFIED'), ('UNSPECIFIED'), ('UNSPECIFIED') ) ;
#220 = ORIENTED_EDGE ( 'NONE', *, *, #33, .F. ) ;
#221 = DIRECTION ( 'NONE',  ( 3.491481338843133355E-15, -0.0000000000000000000, 1.000000000000000000 ) ) ;
#222 = DIRECTION ( 'NONE',  ( 1.000000000000000000, 0.0000000000000000000, -3.469446951953614189E-15 ) ) ;
#223 = APPLICATION_CONTEXT ( 'configuration controlled 3d designs of mechanical parts and assemblies' ) ;
#224 = AXIS2_PLACEMENT_3D ( 'NONE', #199, #6, #84 ) ;
#225 = DATE_AND_TIME ( #60, #147 ) ;
#226 = COORDINATED_UNIVERSAL_TIME_OFFSET ( 1, 0, .AHEAD. ) ;
#227 = DATE_AND_TIME ( #131, #119 ) ;
#228 = ORGANIZATION ( 'UNSPECIFIED', 'UNSPECIFIED', '' ) ;
#229 = DIRECTION ( 'NONE',  ( 3.491481338843133355E-15, -0.0000000000000000000, 1.000000000000000000 ) ) ;
#230 = AXIS2_PLACEMENT_3D ( 'NONE', #107, #229, #61 ) ;
#231 = VERTEX_POINT ( 'NONE', #140 ) ;
#232 = DIRECTION ( 'NONE',  ( 1.000000000000000000, 0.0000000000000000000, -3.491481338843133355E-15 ) ) ;
#233 = ADVANCED_FACE ( 'NONE', ( #53, #195 ), #183, .F. ) ;
#234 = MANIFOLD_SOLID_BREP ( 'Corps-Déplacer/Copier1[2]', #201 ) ;
#235 = ORIENTED_EDGE ( 'NONE', *, *, #135, .F. ) ;
#236 = PRODUCT_DEFINITION ( 'UNKNOWN', '', #186, #137 ) ;
#237 = EDGE_LOOP ( 'NONE', ( #32 ) ) ;
#238 = CARTESIAN_POINT ( 'NONE',  ( 0.2000000000000021760, 0.0000000000000000000, 0.5999999999999989786 ) ) ;
#239 = EDGE_LOOP ( 'NONE', ( #220 ) ) ;
#240 = CARTESIAN_POINT ( 'NONE',  ( 2.094888803305879224E-15, 0.0000000000000000000, 0.5999999999999998668 ) ) ;
#241 = CARTESIAN_POINT ( 'NONE',  ( 1.326762908760390423E-13, 0.0000000000000000000, 38.00000000000000000 ) ) ;
#242 = APPROVAL_PERSON_ORGANIZATION ( #57, #193, #211 ) ;
#243 = DATE_AND_TIME ( #2, #132 ) ;
ENDSEC;
END-ISO-10303-21;
