ISO-10303-21;
HEADER;
FILE_DESCRIPTION (( 'STEP AP203' ),
    '1' );
FILE_NAME ('334915.step',
    '2021-11-09T06:59:35',
    ( '' ),
    ( '' ),
    'SwSTEP 2.0',
    'SolidWorks 2019',
    '' );
FILE_SCHEMA (( 'CONFIG_CONTROL_DESIGN' ));
ENDSEC;

DATA;
#1 = CC_DESIGN_APPROVAL ( #175, ( #95 ) ) ;
#2 = ADVANCED_FACE ( 'NONE', ( #240, #98 ), #166, .T. ) ;
#3 = ORIENTED_EDGE ( 'NONE', *, *, #37, .F. ) ;
#4 = CIRCLE ( 'NONE', #41, 0.1749999999999998224 ) ;
#5 = APPROVAL_ROLE ( '' ) ;
#6 = APPLICATION_PROTOCOL_DEFINITION ( 'international standard', 'config_control_design', 1994, #186 ) ;
#7 = DIRECTION ( 'NONE',  ( 1.000000000000000000, 0.0000000000000000000, -3.469446951953614189E-15 ) ) ;
#8 = ORIENTED_EDGE ( 'NONE', *, *, #37, .T. ) ;
#9 = DIRECTION ( 'NONE',  ( 1.000000000000000000, 0.0000000000000000000, -4.336808689942017736E-15 ) ) ;
#10 = CARTESIAN_POINT ( 'NONE',  ( 1.600000000000132871, 0.0000000000000000000, 37.99999999999999289 ) ) ;
#11 = EDGE_LOOP ( 'NONE', ( #122 ) ) ;
#12 = EDGE_LOOP ( 'NONE', ( #3 ) ) ;
#13 = CARTESIAN_POINT ( 'NONE',  ( 1.850485109586860047E-15, -5.746271514173171035E-17, 0.5299999999999999156 ) ) ;
#14 = ADVANCED_FACE ( 'NONE', ( #211 ), #146, .T. ) ;
#15 = LOCAL_TIME ( 7, 59, 35.00000000000000000, #169 ) ;
#16 = DIRECTION ( 'NONE',  ( -1.000000000000000000, 0.0000000000000000000, 3.491481338843133355E-15 ) ) ;
#17 = CALENDAR_DATE ( 2021, 9, 11 ) ;
#18 = CC_DESIGN_PERSON_AND_ORGANIZATION_ASSIGNMENT ( #209, #180, ( #95 ) ) ;
#19 = APPROVAL ( #135, 'UNSPECIFIED' ) ;
#20 = VERTEX_POINT ( 'NONE', #87 ) ;
#21 = VERTEX_POINT ( 'NONE', #231 ) ;
#22 = AXIS2_PLACEMENT_3D ( 'NONE', #13, #77, #16 ) ;
#23 = EDGE_CURVE ( 'NONE', #40, #40, #107, .T. ) ;
#24 = CARTESIAN_POINT ( 'NONE',  ( 2.000000000000026645, 0.0000000000000000000, 7.604297718988162202 ) ) ;
#25 = CIRCLE ( 'NONE', #97, 0.1749999999999998224 ) ;
#26 = APPROVAL_ROLE ( '' ) ;
#27 = DIRECTION ( 'NONE',  ( 3.491481338843133355E-15, -0.0000000000000000000, 1.000000000000000000 ) ) ;
#28 = CIRCLE ( 'NONE', #132, 2.000000000000000000 ) ;
#29 = CC_DESIGN_PERSON_AND_ORGANIZATION_ASSIGNMENT ( #228, #36, ( #226 ) ) ;
#30 = CALENDAR_DATE ( 2021, 9, 11 ) ;
#31 = ORIENTED_EDGE ( 'NONE', *, *, #51, .F. ) ;
#32 = COORDINATED_UNIVERSAL_TIME_OFFSET ( 1, 0, .AHEAD. ) ;
#33 = CC_DESIGN_DATE_AND_TIME_ASSIGNMENT ( #179, #181, ( #100 ) ) ;
#34 = DIRECTION ( 'NONE',  ( 3.491481338843133355E-15, -0.0000000000000000000, 1.000000000000000000 ) ) ;
#35 = ORGANIZATION ( 'UNSPECIFIED', 'UNSPECIFIED', '' ) ;
#36 = PERSON_AND_ORGANIZATION_ROLE ( 'classification_officer' ) ;
#37 = EDGE_CURVE ( 'NONE', #109, #109, #152, .T. ) ;
#38 = VERTEX_POINT ( 'NONE', #168 ) ;
#39 = PERSON_AND_ORGANIZATION ( #63, #35 ) ;
#40 = VERTEX_POINT ( 'NONE', #24 ) ;
#41 = AXIS2_PLACEMENT_3D ( 'NONE', #221, #27, #133 ) ;
#42 = FACE_OUTER_BOUND ( 'NONE', #157, .T. ) ;
#43 = COORDINATED_UNIVERSAL_TIME_OFFSET ( 1, 0, .AHEAD. ) ;
#44 = DIRECTION ( 'NONE',  ( -3.491481338843133355E-15, 0.0000000000000000000, -1.000000000000000000 ) ) ;
#45 = ORIENTED_EDGE ( 'NONE', *, *, #213, .F. ) ;
#46 = UNCERTAINTY_MEASURE_WITH_UNIT (LENGTH_MEASURE( 1.000000000000000082E-05 ), #183, 'distance_accuracy_value', 'NONE');
#47 = DIRECTION ( 'NONE',  ( 1.000000000000000000, 0.0000000000000000000, -3.491481338843133355E-15 ) ) ;
#48 = AXIS2_PLACEMENT_3D ( 'NONE', #136, #44, #114 ) ;
#49 =( NAMED_UNIT ( * ) PLANE_ANGLE_UNIT ( ) SI_UNIT ( $, .RADIAN. ) );
#50 = PRODUCT ( '334915', '334915', '', ( #150 ) ) ;
#51 = EDGE_CURVE ( 'NONE', #76, #76, #28, .T. ) ;
#52 =( GEOMETRIC_REPRESENTATION_CONTEXT ( 3 ) GLOBAL_UNCERTAINTY_ASSIGNED_CONTEXT ( ( #46 ) ) GLOBAL_UNIT_ASSIGNED_CONTEXT ( ( #183, #49, #227 ) ) REPRESENTATION_CONTEXT ( 'NONE', 'WORKASPACE' ) );
#53 = COORDINATED_UNIVERSAL_TIME_OFFSET ( 1, 0, .AHEAD. ) ;
#54 = ORIENTED_EDGE ( 'NONE', *, *, #137, .T. ) ;
#55 = DIRECTION ( 'NONE',  ( 1.000000000000000000, 0.0000000000000000000, -3.491481338843133355E-15 ) ) ;
#56 = CARTESIAN_POINT ( 'NONE',  ( 2.655026358085459608E-14, 0.0000000000000000000, 7.604297718988168420 ) ) ;
#57 = TOROIDAL_SURFACE ( 'NONE', #201, 2.174999999999999378, 2.000000000000000000 ) ;
#58 = DIRECTION ( 'NONE',  ( 3.491481338843133355E-15, -0.0000000000000000000, 1.000000000000000000 ) ) ;
#59 = VERTEX_POINT ( 'NONE', #139 ) ;
#60 = DIRECTION ( 'NONE',  ( 1.000000000000000000, 0.0000000000000000000, -3.491481338843132961E-15 ) ) ;
#61 = MANIFOLD_SOLID_BREP ( 'Corps-Déplacer/Copier1[2]', #131 ) ;
#62 = MANIFOLD_SOLID_BREP ( 'Corps-Déplacer/Copier1[1]', #190 ) ;
#63 = PERSON ( 'UNSPECIFIED', 'UNSPECIFIED', 'UNSPECIFIED', ('UNSPECIFIED'), ('UNSPECIFIED'), ('UNSPECIFIED') ) ;
#64 = ORIENTED_EDGE ( 'NONE', *, *, #213, .T. ) ;
#65 = AXIS2_PLACEMENT_3D ( 'NONE', #91, #128, #217 ) ;
#66 = CALENDAR_DATE ( 2021, 9, 11 ) ;
#67 = APPLICATION_PROTOCOL_DEFINITION ( 'international standard', 'config_control_design', 1994, #111 ) ;
#68 = SECURITY_CLASSIFICATION_LEVEL ( 'unclassified' ) ;
#69 = PERSON_AND_ORGANIZATION ( #63, #35 ) ;
#70 = DIRECTION ( 'NONE',  ( 3.491481338843133355E-15, -0.0000000000000000000, 1.000000000000000000 ) ) ;
#71 = CALENDAR_DATE ( 2021, 9, 11 ) ;
#72 = CARTESIAN_POINT ( 'NONE',  ( 1.312796983405018142E-13, 0.0000000000000000000, 37.60000000000000142 ) ) ;
#73 = CIRCLE ( 'NONE', #145, 0.2431483474218593954 ) ;
#74 = PLANE ( 'NONE',  #89 ) ;
#75 = ORIENTED_EDGE ( 'NONE', *, *, #23, .T. ) ;
#76 = VERTEX_POINT ( 'NONE', #238 ) ;
#77 = DIRECTION ( 'NONE',  ( -3.491481338843133355E-15, 0.0000000000000000000, -1.000000000000000000 ) ) ;
#78 = AXIS2_PLACEMENT_3D ( 'NONE', #151, #34, #229 ) ;
#79 = LOCAL_TIME ( 7, 59, 35.00000000000000000, #81 ) ;
#80 = CARTESIAN_POINT ( 'NONE',  ( -9.831781012932406109E-37, 0.0000000000000000000, -2.815934000148506281E-22 ) ) ;
#81 = COORDINATED_UNIVERSAL_TIME_OFFSET ( 1, 0, .AHEAD. ) ;
#82 = EDGE_LOOP ( 'NONE', ( #233 ) ) ;
#83 = ADVANCED_FACE ( 'NONE', ( #92 ), #74, .F. ) ;
#84 = ORIENTED_EDGE ( 'NONE', *, *, #160, .T. ) ;
#85 = CARTESIAN_POINT ( 'NONE',  ( 1.326762908760390423E-13, 0.0000000000000000000, 38.00000000000000000 ) ) ;
#86 = ADVANCED_FACE ( 'NONE', ( #129, #235 ), #115, .T. ) ;
#87 = CARTESIAN_POINT ( 'NONE',  ( 0.1750000000000016542, 0.0000000000000000000, 0.5299999999999990274 ) ) ;
#88 = PERSON_AND_ORGANIZATION_ROLE ( 'creator' ) ;
#89 = AXIS2_PLACEMENT_3D ( 'NONE', #153, #172, #191 ) ;
#90 = DIRECTION ( 'NONE',  ( 3.491481338843133355E-15, -0.0000000000000000000, 1.000000000000000000 ) ) ;
#91 = CARTESIAN_POINT ( 'NONE',  ( 1.850485109586859258E-15, 0.0000000000000000000, 0.5299999999999996936 ) ) ;
#92 = FACE_OUTER_BOUND ( 'NONE', #11, .T. ) ;
#93 = FACE_OUTER_BOUND ( 'NONE', #178, .T. ) ;
#94 = DIRECTION ( 'NONE',  ( 3.491481338843133355E-15, -0.0000000000000000000, 1.000000000000000000 ) ) ;
#95 = PRODUCT_DEFINITION_FORMATION_WITH_SPECIFIED_SOURCE ( 'ANY', '', #50, .NOT_KNOWN. ) ;
#96 = FACE_BOUND ( 'NONE', #12, .T. ) ;
#97 = AXIS2_PLACEMENT_3D ( 'NONE', #80, #156, #143 ) ;
#98 = FACE_OUTER_BOUND ( 'NONE', #200, .T. ) ;
#99 = SHAPE_DEFINITION_REPRESENTATION ( #102, #218 ) ;
#100 = PRODUCT_DEFINITION ( 'UNKNOWN', '', #95, #222 ) ;
#101 = EDGE_LOOP ( 'NONE', ( #54 ) ) ;
#102 = PRODUCT_DEFINITION_SHAPE ( 'NONE', 'NONE',  #100 ) ;
#103 = PERSON_AND_ORGANIZATION_ROLE ( 'design_owner' ) ;
#104 = DATE_TIME_ROLE ( 'classification_date' ) ;
#105 = CONICAL_SURFACE ( 'NONE', #242, 1.600000000000000089, 0.7853981633974512766 ) ;
#106 = APPROVAL_STATUS ( 'not_yet_approved' ) ;
#107 = CIRCLE ( 'NONE', #162, 2.000000000000000000 ) ;
#108 = CONICAL_SURFACE ( 'NONE', #216, 2.000000000000000000, 0.2617993877991428020 ) ;
#109 = VERTEX_POINT ( 'NONE', #10 ) ;
#110 = CARTESIAN_POINT ( 'NONE',  ( 1.326762908760390423E-13, 0.0000000000000000000, 38.00000000000000000 ) ) ;
#111 = APPLICATION_CONTEXT ( 'configuration controlled 3d designs of mechanical parts and assemblies' ) ;
#112 = PLANE ( 'NONE',  #48 ) ;
#113 = APPROVAL ( #189, 'UNSPECIFIED' ) ;
#114 = DIRECTION ( 'NONE',  ( -1.000000000000000000, 0.0000000000000000000, 3.491481338843133355E-15 ) ) ;
#115 = CYLINDRICAL_SURFACE ( 'NONE', #155, 0.1749999999999998224 ) ;
#116 = LOCAL_TIME ( 7, 59, 35.00000000000000000, #32 ) ;
#117 = DIRECTION ( 'NONE',  ( -1.000000000000000000, 0.0000000000000000000, 4.336808689942017736E-15 ) ) ;
#118 = CC_DESIGN_PERSON_AND_ORGANIZATION_ASSIGNMENT ( #177, #202, ( #100 ) ) ;
#119 = CC_DESIGN_APPROVAL ( #113, ( #226 ) ) ;
#120 = DATE_AND_TIME ( #17, #210 ) ;
#121 = ADVANCED_FACE ( 'NONE', ( #198, #96 ), #105, .T. ) ;
#122 = ORIENTED_EDGE ( 'NONE', *, *, #142, .T. ) ;
#123 = APPROVAL_PERSON_ORGANIZATION ( #182, #175, #5 ) ;
#124 = APPROVAL_ROLE ( '' ) ;
#125 = CARTESIAN_POINT ( 'NONE',  ( 0.0000000000000000000, 0.0000000000000000000, 0.0000000000000000000 ) ) ;
#126 = EDGE_LOOP ( 'NONE', ( #8 ) ) ;
#127 = ADVANCED_FACE ( 'NONE', ( #176 ), #243, .T. ) ;
#128 = DIRECTION ( 'NONE',  ( 3.491481338843133355E-15, -0.0000000000000000000, 1.000000000000000000 ) ) ;
#129 = FACE_OUTER_BOUND ( 'NONE', #101, .T. ) ;
#130 = DIRECTION ( 'NONE',  ( 3.491481338843133355E-15, -0.0000000000000000000, 1.000000000000000000 ) ) ;
#131 = CLOSED_SHELL ( 'NONE', ( #223, #86, #83 ) ) ;
#132 = AXIS2_PLACEMENT_3D ( 'NONE', #72, #94, #134 ) ;
#133 = DIRECTION ( 'NONE',  ( 1.000000000000000000, 0.0000000000000000000, -3.717264591378875951E-15 ) ) ;
#134 = DIRECTION ( 'NONE',  ( 1.000000000000000000, 0.0000000000000000000, -3.469446951953614189E-15 ) ) ;
#135 = APPROVAL_STATUS ( 'not_yet_approved' ) ;
#136 = CARTESIAN_POINT ( 'NONE',  ( -4.915890506466203054E-37, 0.0000000000000000000, -1.407967000074253141E-22 ) ) ;
#137 = EDGE_CURVE ( 'NONE', #59, #59, #25, .T. ) ;
#138 = EDGE_LOOP ( 'NONE', ( #31 ) ) ;
#139 = CARTESIAN_POINT ( 'NONE',  ( 0.1749999999999998224, 0.0000000000000000000, -6.110095158909477216E-16 ) ) ;
#140 = APPROVAL_PERSON_ORGANIZATION ( #39, #113, #124 ) ;
#141 = CARTESIAN_POINT ( 'NONE',  ( 1.326762908760390423E-13, 0.0000000000000000000, 38.00000000000000000 ) ) ;
#142 = EDGE_CURVE ( 'NONE', #20, #20, #4, .T. ) ;
#143 = DIRECTION ( 'NONE',  ( 1.000000000000000000, 0.0000000000000000000, -3.491481338843132961E-15 ) ) ;
#144 = APPROVAL_DATE_TIME ( #120, #19 ) ;
#145 = AXIS2_PLACEMENT_3D ( 'NONE', #174, #185, #188 ) ;
#146 = PLANE ( 'NONE',  #225 ) ;
#147 = EDGE_LOOP ( 'NONE', ( #45 ) ) ;
#148 = CC_DESIGN_SECURITY_CLASSIFICATION ( #226, ( #95 ) ) ;
#149 = PERSON_AND_ORGANIZATION ( #63, #35 ) ;
#150 = MECHANICAL_CONTEXT ( 'NONE', #111, 'mechanical' ) ;
#151 = CARTESIAN_POINT ( 'NONE',  ( 0.0000000000000000000, 0.0000000000000000000, 0.0000000000000000000 ) ) ;
#152 = CIRCLE ( 'NONE', #173, 1.600000000000000089 ) ;
#153 = CARTESIAN_POINT ( 'NONE',  ( 1.850485109586860047E-15, -5.746271514173171035E-17, 0.5299999999999999156 ) ) ;
#154 = DIRECTION ( 'NONE',  ( 3.491481338843133355E-15, -0.0000000000000000000, 1.000000000000000000 ) ) ;
#155 = AXIS2_PLACEMENT_3D ( 'NONE', #196, #130, #60 ) ;
#156 = DIRECTION ( 'NONE',  ( 3.491481338843133355E-15, -0.0000000000000000000, 1.000000000000000000 ) ) ;
#157 = EDGE_LOOP ( 'NONE', ( #84 ) ) ;
#158 = APPROVAL_DATE_TIME ( #241, #113 ) ;
#159 = AXIS2_PLACEMENT_3D ( 'NONE', #125, #167, #187 ) ;
#160 = EDGE_CURVE ( 'NONE', #38, #38, #163, .T. ) ;
#161 = ORIENTED_EDGE ( 'NONE', *, *, #137, .F. ) ;
#162 = AXIS2_PLACEMENT_3D ( 'NONE', #56, #215, #239 ) ;
#163 = CIRCLE ( 'NONE', #65, 0.1749999999999998224 ) ;
#164 = DATE_AND_TIME ( #66, #207 ) ;
#165 = ADVANCED_FACE ( 'NONE', ( #193, #195 ), #108, .T. ) ;
#166 = CYLINDRICAL_SURFACE ( 'NONE', #78, 2.000000000000000000 ) ;
#167 = DIRECTION ( 'NONE',  ( 0.0000000000000000000, 0.0000000000000000000, 1.000000000000000000 ) ) ;
#168 = CARTESIAN_POINT ( 'NONE',  ( 0.1750000000000016542, 0.0000000000000000000, 0.5299999999999990274 ) ) ;
#169 = COORDINATED_UNIVERSAL_TIME_OFFSET ( 1, 0, .AHEAD. ) ;
#170 = EDGE_LOOP ( 'NONE', ( #199 ) ) ;
#171 = FACE_OUTER_BOUND ( 'NONE', #147, .T. ) ;
#172 = DIRECTION ( 'NONE',  ( -3.491481338843133355E-15, 0.0000000000000000000, -1.000000000000000000 ) ) ;
#173 = AXIS2_PLACEMENT_3D ( 'NONE', #110, #90, #9 ) ;
#174 = CARTESIAN_POINT ( 'NONE',  ( 3.657808841812115639E-15, 0.0000000000000000000, 1.047638090205028405 ) ) ;
#175 = APPROVAL ( #106, 'UNSPECIFIED' ) ;
#176 = FACE_OUTER_BOUND ( 'NONE', #170, .T. ) ;
#177 = PERSON_AND_ORGANIZATION ( #63, #35 ) ;
#178 = EDGE_LOOP ( 'NONE', ( #161 ) ) ;
#179 = DATE_AND_TIME ( #30, #79 ) ;
#180 = PERSON_AND_ORGANIZATION_ROLE ( 'design_supplier' ) ;
#181 = DATE_TIME_ROLE ( 'creation_date' ) ;
#182 = PERSON_AND_ORGANIZATION ( #63, #35 ) ;
#183 =( LENGTH_UNIT ( ) NAMED_UNIT ( * ) SI_UNIT ( .MILLI., .METRE. ) );
#184 = PRODUCT_RELATED_PRODUCT_CATEGORY ( 'detail', '', ( #50 ) ) ;
#185 = DIRECTION ( 'NONE',  ( 3.491481338843133355E-15, -0.0000000000000000000, 1.000000000000000000 ) ) ;
#186 = APPLICATION_CONTEXT ( 'configuration controlled 3d designs of mechanical parts and assemblies' ) ;
#187 = DIRECTION ( 'NONE',  ( 1.000000000000000000, 0.0000000000000000000, 0.0000000000000000000 ) ) ;
#188 = DIRECTION ( 'NONE',  ( 1.000000000000000000, 0.0000000000000000000, -3.567212145117077456E-15 ) ) ;
#189 = APPROVAL_STATUS ( 'not_yet_approved' ) ;
#190 = CLOSED_SHELL ( 'NONE', ( #2, #121, #14, #204, #165, #127 ) ) ;
#191 = DIRECTION ( 'NONE',  ( -1.000000000000000000, 0.0000000000000000000, 3.491481338843133355E-15 ) ) ;
#192 = CC_DESIGN_DATE_AND_TIME_ASSIGNMENT ( #232, #104, ( #226 ) ) ;
#193 = FACE_BOUND ( 'NONE', #208, .T. ) ;
#194 = EDGE_LOOP ( 'NONE', ( #219 ) ) ;
#195 = FACE_OUTER_BOUND ( 'NONE', #206, .T. ) ;
#196 = CARTESIAN_POINT ( 'NONE',  ( 0.0000000000000000000, 0.0000000000000000000, 0.0000000000000000000 ) ) ;
#197 = CC_DESIGN_PERSON_AND_ORGANIZATION_ASSIGNMENT ( #224, #103, ( #50 ) ) ;
#198 = FACE_OUTER_BOUND ( 'NONE', #194, .T. ) ;
#199 = ORIENTED_EDGE ( 'NONE', *, *, #160, .F. ) ;
#200 = EDGE_LOOP ( 'NONE', ( #75 ) ) ;
#201 = AXIS2_PLACEMENT_3D ( 'NONE', #214, #70, #55 ) ;
#202 = PERSON_AND_ORGANIZATION_ROLE ( 'creator' ) ;
#203 = CALENDAR_DATE ( 2021, 9, 11 ) ;
#204 = ADVANCED_FACE ( 'NONE', ( #42, #171 ), #57, .F. ) ;
#205 = ORIENTED_EDGE ( 'NONE', *, *, #23, .F. ) ;
#206 = EDGE_LOOP ( 'NONE', ( #205 ) ) ;
#207 = LOCAL_TIME ( 7, 59, 35.00000000000000000, #53 ) ;
#208 = EDGE_LOOP ( 'NONE', ( #64 ) ) ;
#209 = PERSON_AND_ORGANIZATION ( #63, #35 ) ;
#210 = LOCAL_TIME ( 7, 59, 35.00000000000000000, #43 ) ;
#211 = FACE_OUTER_BOUND ( 'NONE', #126, .T. ) ;
#212 = APPROVAL_DATE_TIME ( #164, #175 ) ;
#213 = EDGE_CURVE ( 'NONE', #21, #21, #73, .T. ) ;
#214 = CARTESIAN_POINT ( 'NONE',  ( 1.850485109586860047E-15, 0.0000000000000000000, 0.5299999999999999156 ) ) ;
#215 = DIRECTION ( 'NONE',  ( 3.491481338843133355E-15, -0.0000000000000000000, 1.000000000000000000 ) ) ;
#216 = AXIS2_PLACEMENT_3D ( 'NONE', #234, #58, #7 ) ;
#217 = DIRECTION ( 'NONE',  ( 1.000000000000000000, 0.0000000000000000000, -3.717264591378875951E-15 ) ) ;
#218 = ADVANCED_BREP_SHAPE_REPRESENTATION ( '334915', ( #62, #61, #159 ), #52 ) ;
#219 = ORIENTED_EDGE ( 'NONE', *, *, #51, .T. ) ;
#220 = DIRECTION ( 'NONE',  ( -3.491481338843133355E-15, 0.0000000000000000000, -1.000000000000000000 ) ) ;
#221 = CARTESIAN_POINT ( 'NONE',  ( 1.850485109586859258E-15, 0.0000000000000000000, 0.5299999999999996936 ) ) ;
#222 = DESIGN_CONTEXT ( 'detailed design', #186, 'design' ) ;
#223 = ADVANCED_FACE ( 'NONE', ( #93 ), #112, .T. ) ;
#224 = PERSON_AND_ORGANIZATION ( #63, #35 ) ;
#225 = AXIS2_PLACEMENT_3D ( 'NONE', #85, #154, #47 ) ;
#226 = SECURITY_CLASSIFICATION ( '', '', #68 ) ;
#227 =( NAMED_UNIT ( * ) SI_UNIT ( $, .STERADIAN. ) SOLID_ANGLE_UNIT ( ) );
#228 = PERSON_AND_ORGANIZATION ( #63, #35 ) ;
#229 = DIRECTION ( 'NONE',  ( 1.000000000000000000, 0.0000000000000000000, -3.491481338843133355E-15 ) ) ;
#230 = CC_DESIGN_APPROVAL ( #19, ( #100 ) ) ;
#231 = CARTESIAN_POINT ( 'NONE',  ( 0.2431483474218630592, 0.0000000000000000000, 1.047638090205027517 ) ) ;
#232 = DATE_AND_TIME ( #71, #15 ) ;
#233 = ORIENTED_EDGE ( 'NONE', *, *, #142, .F. ) ;
#234 = CARTESIAN_POINT ( 'NONE',  ( 2.655026358085459608E-14, 0.0000000000000000000, 7.604297718988168420 ) ) ;
#235 = FACE_OUTER_BOUND ( 'NONE', #82, .T. ) ;
#236 = APPROVAL_PERSON_ORGANIZATION ( #69, #19, #26 ) ;
#237 = CC_DESIGN_PERSON_AND_ORGANIZATION_ASSIGNMENT ( #149, #88, ( #95 ) ) ;
#238 = CARTESIAN_POINT ( 'NONE',  ( 2.000000000000131450, 0.0000000000000000000, 37.59999999999999432 ) ) ;
#239 = DIRECTION ( 'NONE',  ( 1.000000000000000000, 0.0000000000000000000, -3.469446951953614189E-15 ) ) ;
#240 = FACE_OUTER_BOUND ( 'NONE', #138, .T. ) ;
#241 = DATE_AND_TIME ( #203, #116 ) ;
#242 = AXIS2_PLACEMENT_3D ( 'NONE', #141, #220, #117 ) ;
#243 = PLANE ( 'NONE',  #22 ) ;
ENDSEC;
END-ISO-10303-21;
