ISO-10303-21;
HEADER;
FILE_DESCRIPTION (( 'STEP AP203' ),
    '1' );
FILE_NAME ('334913.step',
    '2021-11-09T06:59:34',
    ( '' ),
    ( '' ),
    'SwSTEP 2.0',
    'SolidWorks 2019',
    '' );
FILE_SCHEMA (( 'CONFIG_CONTROL_DESIGN' ));
ENDSEC;

DATA;
#1 = DATE_AND_TIME ( #202, #232 ) ;
#2 = EDGE_LOOP ( 'NONE', ( #15 ) ) ;
#3 = CC_DESIGN_PERSON_AND_ORGANIZATION_ASSIGNMENT ( #56, #164, ( #183 ) ) ;
#4 = PERSON ( 'UNSPECIFIED', 'UNSPECIFIED', 'UNSPECIFIED', ('UNSPECIFIED'), ('UNSPECIFIED'), ('UNSPECIFIED') ) ;
#5 = DIRECTION ( 'NONE',  ( -1.000000000000000000, 0.0000000000000000000, 4.336808689942017736E-15 ) ) ;
#6 = CARTESIAN_POINT ( 'NONE',  ( 1.326762908760390438E-15, -5.149960319306142980E-17, 0.3799999999999998934 ) ) ;
#7 = CARTESIAN_POINT ( 'NONE',  ( 0.0000000000000000000, 0.0000000000000000000, 0.0000000000000000000 ) ) ;
#8 = EDGE_LOOP ( 'NONE', ( #226 ) ) ;
#9 = DIRECTION ( 'NONE',  ( 1.000000000000000000, 0.0000000000000000000, -3.469446951953614189E-15 ) ) ;
#10 = TOROIDAL_SURFACE ( 'NONE', #142, 2.124999999999999556, 2.000000000000000000 ) ;
#11 = ORGANIZATION ( 'UNSPECIFIED', 'UNSPECIFIED', '' ) ;
#12 = DIRECTION ( 'NONE',  ( 1.000000000000000000, 0.0000000000000000000, -3.469446951953614189E-15 ) ) ;
#13 = CC_DESIGN_PERSON_AND_ORGANIZATION_ASSIGNMENT ( #41, #223, ( #162 ) ) ;
#14 = CARTESIAN_POINT ( 'NONE',  ( 1.326762908760389452E-15, 0.0000000000000000000, 0.3799999999999996159 ) ) ;
#15 = ORIENTED_EDGE ( 'NONE', *, *, #156, .T. ) ;
#16 = APPLICATION_PROTOCOL_DEFINITION ( 'international standard', 'config_control_design', 1994, #163 ) ;
#17 = AXIS2_PLACEMENT_3D ( 'NONE', #48, #196, #5 ) ;
#18 = PRODUCT_DEFINITION ( 'UNKNOWN', '', #183, #110 ) ;
#19 = APPROVAL_ROLE ( '' ) ;
#20 = MANIFOLD_SOLID_BREP ( 'Corps-Déplacer/Copier1[2]', #220 ) ;
#21 = ADVANCED_BREP_SHAPE_REPRESENTATION ( '334913', ( #181, #20, #114 ), #187 ) ;
#22 = DATE_TIME_ROLE ( 'creation_date' ) ;
#23 = ADVANCED_FACE ( 'NONE', ( #115 ), #229, .T. ) ;
#24 = AXIS2_PLACEMENT_3D ( 'NONE', #67, #211, #117 ) ;
#25 = CONICAL_SURFACE ( 'NONE', #17, 1.600000000000000089, 0.7853981633974512766 ) ;
#26 = DIRECTION ( 'NONE',  ( 3.491481338843133355E-15, -0.0000000000000000000, 1.000000000000000000 ) ) ;
#27 = DIRECTION ( 'NONE',  ( 3.491481338843133355E-15, -0.0000000000000000000, 1.000000000000000000 ) ) ;
#28 = CARTESIAN_POINT ( 'NONE',  ( 0.1250000000000001110, 0.0000000000000000000, -4.364354489487921385E-16 ) ) ;
#29 = ORIENTED_EDGE ( 'NONE', *, *, #44, .F. ) ;
#30 = CARTESIAN_POINT ( 'NONE',  ( 0.1250000000000014433, 0.0000000000000000000, 0.3799999999999992273 ) ) ;
#31 = APPROVAL ( #72, 'UNSPECIFIED' ) ;
#32 = DIRECTION ( 'NONE',  ( -1.000000000000000000, 0.0000000000000000000, 3.491481338843133355E-15 ) ) ;
#33 = CARTESIAN_POINT ( 'NONE',  ( 0.1931483474218628482, 0.0000000000000000000, 0.8976380902050278277 ) ) ;
#34 = CC_DESIGN_APPROVAL ( #95, ( #143 ) ) ;
#35 = CARTESIAN_POINT ( 'NONE',  ( 1.326762908760390438E-15, -5.149960319306142980E-17, 0.3799999999999998934 ) ) ;
#36 = CARTESIAN_POINT ( 'NONE',  ( 2.000000000000131450, 0.0000000000000000000, 37.59999999999999432 ) ) ;
#37 = DIRECTION ( 'NONE',  ( 1.000000000000000000, 0.0000000000000000000, -3.491481338843133355E-15 ) ) ;
#38 = PERSON_AND_ORGANIZATION ( #4, #11 ) ;
#39 = EDGE_LOOP ( 'NONE', ( #197 ) ) ;
#40 = PERSON_AND_ORGANIZATION ( #4, #11 ) ;
#41 = PERSON_AND_ORGANIZATION ( #4, #11 ) ;
#42 = PERSON_AND_ORGANIZATION ( #4, #11 ) ;
#43 = APPROVAL ( #109, 'UNSPECIFIED' ) ;
#44 = EDGE_CURVE ( 'NONE', #99, #99, #203, .T. ) ;
#45 = APPLICATION_CONTEXT ( 'configuration controlled 3d designs of mechanical parts and assemblies' ) ;
#46 = LOCAL_TIME ( 7, 59, 34.00000000000000000, #108 ) ;
#47 = VERTEX_POINT ( 'NONE', #28 ) ;
#48 = CARTESIAN_POINT ( 'NONE',  ( 1.326762908760390423E-13, 0.0000000000000000000, 38.00000000000000000 ) ) ;
#49 = EDGE_LOOP ( 'NONE', ( #71 ) ) ;
#50 = VERTEX_POINT ( 'NONE', #36 ) ;
#51 = ORIENTED_EDGE ( 'NONE', *, *, #78, .F. ) ;
#52 = FACE_BOUND ( 'NONE', #8, .T. ) ;
#53 = CARTESIAN_POINT ( 'NONE',  ( 1.312796983405018142E-13, 0.0000000000000000000, 37.60000000000000142 ) ) ;
#54 = PLANE ( 'NONE',  #74 ) ;
#55 = DIRECTION ( 'NONE',  ( -3.491481338843133355E-15, 0.0000000000000000000, -1.000000000000000000 ) ) ;
#56 = PERSON_AND_ORGANIZATION ( #4, #11 ) ;
#57 = APPROVAL_DATE_TIME ( #58, #43 ) ;
#58 = DATE_AND_TIME ( #186, #77 ) ;
#59 = AXIS2_PLACEMENT_3D ( 'NONE', #207, #26, #9 ) ;
#60 = COORDINATED_UNIVERSAL_TIME_OFFSET ( 1, 0, .AHEAD. ) ;
#61 = PRODUCT_DEFINITION_SHAPE ( 'NONE', 'NONE',  #18 ) ;
#62 = ADVANCED_FACE ( 'NONE', ( #136 ), #85, .F. ) ;
#63 = CONICAL_SURFACE ( 'NONE', #59, 2.000000000000000000, 0.2617993877991428020 ) ;
#64 =( NAMED_UNIT ( * ) PLANE_ANGLE_UNIT ( ) SI_UNIT ( $, .RADIAN. ) );
#65 = CARTESIAN_POINT ( 'NONE',  ( 1.326762908760390438E-15, 0.0000000000000000000, 0.3799999999999998934 ) ) ;
#66 = DIRECTION ( 'NONE',  ( 3.491481338843133355E-15, -0.0000000000000000000, 1.000000000000000000 ) ) ;
#67 = CARTESIAN_POINT ( 'NONE',  ( -4.915890506466203054E-37, 0.0000000000000000000, -1.407967000074253141E-22 ) ) ;
#68 = CARTESIAN_POINT ( 'NONE',  ( 2.000000000000027089, 0.0000000000000000000, 7.640900259366609326 ) ) ;
#69 = DIRECTION ( 'NONE',  ( 3.491481338843133355E-15, -0.0000000000000000000, 1.000000000000000000 ) ) ;
#70 = CYLINDRICAL_SURFACE ( 'NONE', #149, 2.000000000000000000 ) ;
#71 = ORIENTED_EDGE ( 'NONE', *, *, #105, .F. ) ;
#72 = APPROVAL_STATUS ( 'not_yet_approved' ) ;
#73 = AXIS2_PLACEMENT_3D ( 'NONE', #6, #158, #79 ) ;
#74 = AXIS2_PLACEMENT_3D ( 'NONE', #152, #157, #192 ) ;
#75 = CALENDAR_DATE ( 2021, 9, 11 ) ;
#76 = PERSON_AND_ORGANIZATION ( #4, #11 ) ;
#77 = LOCAL_TIME ( 7, 59, 34.00000000000000000, #218 ) ;
#78 = EDGE_CURVE ( 'NONE', #47, #47, #128, .T. ) ;
#79 = DIRECTION ( 'NONE',  ( -1.000000000000000000, 0.0000000000000000000, 3.491481338843133355E-15 ) ) ;
#80 = DIRECTION ( 'NONE',  ( 3.491481338843133355E-15, -0.0000000000000000000, 1.000000000000000000 ) ) ;
#81 = DIRECTION ( 'NONE',  ( 1.000000000000000000, 0.0000000000000000000, -3.367987933494891755E-15 ) ) ;
#82 = CLOSED_SHELL ( 'NONE', ( #206, #237, #169, #96, #190, #23 ) ) ;
#83 = APPROVAL_PERSON_ORGANIZATION ( #88, #31, #239 ) ;
#84 = DIRECTION ( 'NONE',  ( 1.000000000000000000, 0.0000000000000000000, -3.491481338843133355E-15 ) ) ;
#85 = PLANE ( 'NONE',  #73 ) ;
#86 = CARTESIAN_POINT ( 'NONE',  ( 1.600000000000132871, 0.0000000000000000000, 37.99999999999999289 ) ) ;
#87 = FACE_OUTER_BOUND ( 'NONE', #49, .T. ) ;
#88 = PERSON_AND_ORGANIZATION ( #4, #11 ) ;
#89 = EDGE_CURVE ( 'NONE', #50, #50, #92, .T. ) ;
#90 = CALENDAR_DATE ( 2021, 9, 11 ) ;
#91 = CALENDAR_DATE ( 2021, 9, 11 ) ;
#92 = CIRCLE ( 'NONE', #125, 2.000000000000000000 ) ;
#93 = DIRECTION ( 'NONE',  ( 1.000000000000000000, 0.0000000000000000000, 0.0000000000000000000 ) ) ;
#94 = CC_DESIGN_APPROVAL ( #31, ( #18 ) ) ;
#95 = APPROVAL ( #184, 'UNSPECIFIED' ) ;
#96 = ADVANCED_FACE ( 'NONE', ( #180, #87 ), #10, .F. ) ;
#97 =( LENGTH_UNIT ( ) NAMED_UNIT ( * ) SI_UNIT ( .MILLI., .METRE. ) );
#98 = DIRECTION ( 'NONE',  ( 1.000000000000000000, 0.0000000000000000000, -3.469446951953614189E-15 ) ) ;
#99 = VERTEX_POINT ( 'NONE', #68 ) ;
#100 = EDGE_LOOP ( 'NONE', ( #29 ) ) ;
#101 = VERTEX_POINT ( 'NONE', #86 ) ;
#102 = EDGE_LOOP ( 'NONE', ( #131 ) ) ;
#103 = VERTEX_POINT ( 'NONE', #30 ) ;
#104 = EDGE_LOOP ( 'NONE', ( #151 ) ) ;
#105 = EDGE_CURVE ( 'NONE', #134, #134, #200, .T. ) ;
#106 = DIRECTION ( 'NONE',  ( 3.491481338843133355E-15, -0.0000000000000000000, 1.000000000000000000 ) ) ;
#107 = ORIENTED_EDGE ( 'NONE', *, *, #188, .T. ) ;
#108 = COORDINATED_UNIVERSAL_TIME_OFFSET ( 1, 0, .AHEAD. ) ;
#109 = APPROVAL_STATUS ( 'not_yet_approved' ) ;
#110 = DESIGN_CONTEXT ( 'detailed design', #163, 'design' ) ;
#111 = AXIS2_PLACEMENT_3D ( 'NONE', #191, #235, #12 ) ;
#112 = AXIS2_PLACEMENT_3D ( 'NONE', #7, #66, #228 ) ;
#113 = DIRECTION ( 'NONE',  ( 3.491481338843133355E-15, -0.0000000000000000000, 1.000000000000000000 ) ) ;
#114 = AXIS2_PLACEMENT_3D ( 'NONE', #124, #144, #93 ) ;
#115 = FACE_OUTER_BOUND ( 'NONE', #104, .T. ) ;
#116 = CARTESIAN_POINT ( 'NONE',  ( 0.0000000000000000000, 0.0000000000000000000, 0.0000000000000000000 ) ) ;
#117 = DIRECTION ( 'NONE',  ( -1.000000000000000000, 0.0000000000000000000, 3.491481338843133355E-15 ) ) ;
#118 = FACE_OUTER_BOUND ( 'NONE', #39, .T. ) ;
#119 = ORIENTED_EDGE ( 'NONE', *, *, #44, .T. ) ;
#120 = ADVANCED_FACE ( 'NONE', ( #233 ), #182, .T. ) ;
#121 = DIRECTION ( 'NONE',  ( 1.000000000000000000, 0.0000000000000000000, -3.469446951953611033E-15 ) ) ;
#122 = CARTESIAN_POINT ( 'NONE',  ( 3.134086640985646425E-15, 0.0000000000000000000, 0.8976380902050284938 ) ) ;
#123 = DATE_AND_TIME ( #91, #46 ) ;
#124 = CARTESIAN_POINT ( 'NONE',  ( 0.0000000000000000000, 0.0000000000000000000, 0.0000000000000000000 ) ) ;
#125 = AXIS2_PLACEMENT_3D ( 'NONE', #53, #27, #98 ) ;
#126 = CIRCLE ( 'NONE', #221, 0.1250000000000001110 ) ;
#127 = PERSON_AND_ORGANIZATION_ROLE ( 'creator' ) ;
#128 = CIRCLE ( 'NONE', #165, 0.1250000000000001110 ) ;
#129 = LOCAL_TIME ( 7, 59, 34.00000000000000000, #243 ) ;
#130 = FACE_OUTER_BOUND ( 'NONE', #147, .T. ) ;
#131 = ORIENTED_EDGE ( 'NONE', *, *, #135, .T. ) ;
#132 = FACE_OUTER_BOUND ( 'NONE', #222, .T. ) ;
#133 = ORIENTED_EDGE ( 'NONE', *, *, #135, .F. ) ;
#134 = VERTEX_POINT ( 'NONE', #33 ) ;
#135 = EDGE_CURVE ( 'NONE', #103, #103, #204, .T. ) ;
#136 = FACE_OUTER_BOUND ( 'NONE', #102, .T. ) ;
#137 = VERTEX_POINT ( 'NONE', #179 ) ;
#138 = EDGE_LOOP ( 'NONE', ( #133 ) ) ;
#139 = PRODUCT_RELATED_PRODUCT_CATEGORY ( 'detail', '', ( #162 ) ) ;
#140 = PERSON_AND_ORGANIZATION ( #4, #11 ) ;
#141 = COORDINATED_UNIVERSAL_TIME_OFFSET ( 1, 0, .AHEAD. ) ;
#142 = AXIS2_PLACEMENT_3D ( 'NONE', #65, #69, #155 ) ;
#143 = SECURITY_CLASSIFICATION ( '', '', #217 ) ;
#144 = DIRECTION ( 'NONE',  ( 0.0000000000000000000, 0.0000000000000000000, 1.000000000000000000 ) ) ;
#145 = DATE_AND_TIME ( #75, #129 ) ;
#146 = LOCAL_TIME ( 7, 59, 34.00000000000000000, #60 ) ;
#147 = EDGE_LOOP ( 'NONE', ( #215 ) ) ;
#148 = CC_DESIGN_DATE_AND_TIME_ASSIGNMENT ( #1, #22, ( #18 ) ) ;
#149 = AXIS2_PLACEMENT_3D ( 'NONE', #116, #80, #84 ) ;
#150 = DIRECTION ( 'NONE',  ( 1.000000000000000000, 0.0000000000000000000, -3.469446951953611033E-15 ) ) ;
#151 = ORIENTED_EDGE ( 'NONE', *, *, #156, .F. ) ;
#152 = CARTESIAN_POINT ( 'NONE',  ( 1.326762908760390423E-13, 0.0000000000000000000, 38.00000000000000000 ) ) ;
#153 = AXIS2_PLACEMENT_3D ( 'NONE', #122, #106, #81 ) ;
#154 = CIRCLE ( 'NONE', #171, 1.600000000000000089 ) ;
#155 = DIRECTION ( 'NONE',  ( 1.000000000000000000, 0.0000000000000000000, -3.491481338843133355E-15 ) ) ;
#156 = EDGE_CURVE ( 'NONE', #137, #137, #126, .T. ) ;
#157 = DIRECTION ( 'NONE',  ( 3.491481338843133355E-15, -0.0000000000000000000, 1.000000000000000000 ) ) ;
#158 = DIRECTION ( 'NONE',  ( -3.491481338843133355E-15, 0.0000000000000000000, -1.000000000000000000 ) ) ;
#159 = DIRECTION ( 'NONE',  ( 3.491481338843133355E-15, -0.0000000000000000000, 1.000000000000000000 ) ) ;
#160 = APPLICATION_PROTOCOL_DEFINITION ( 'international standard', 'config_control_design', 1994, #45 ) ;
#161 = SHAPE_DEFINITION_REPRESENTATION ( #61, #21 ) ;
#162 = PRODUCT ( '334913', '334913', '', ( #199 ) ) ;
#163 = APPLICATION_CONTEXT ( 'configuration controlled 3d designs of mechanical parts and assemblies' ) ;
#164 = PERSON_AND_ORGANIZATION_ROLE ( 'creator' ) ;
#165 = AXIS2_PLACEMENT_3D ( 'NONE', #178, #213, #37 ) ;
#166 = CC_DESIGN_SECURITY_CLASSIFICATION ( #143, ( #183 ) ) ;
#167 = DATE_TIME_ROLE ( 'classification_date' ) ;
#168 = CC_DESIGN_PERSON_AND_ORGANIZATION_ASSIGNMENT ( #42, #127, ( #18 ) ) ;
#169 = ADVANCED_FACE ( 'NONE', ( #212 ), #54, .T. ) ;
#170 = DATE_AND_TIME ( #90, #146 ) ;
#171 = AXIS2_PLACEMENT_3D ( 'NONE', #176, #159, #172 ) ;
#172 = DIRECTION ( 'NONE',  ( 1.000000000000000000, 0.0000000000000000000, -4.336808689942017736E-15 ) ) ;
#173 = EDGE_LOOP ( 'NONE', ( #119 ) ) ;
#174 = FACE_OUTER_BOUND ( 'NONE', #173, .T. ) ;
#175 = ORIENTED_EDGE ( 'NONE', *, *, #188, .F. ) ;
#176 = CARTESIAN_POINT ( 'NONE',  ( 1.326762908760390423E-13, 0.0000000000000000000, 38.00000000000000000 ) ) ;
#177 = APPROVAL_PERSON_ORGANIZATION ( #38, #95, #19 ) ;
#178 = CARTESIAN_POINT ( 'NONE',  ( -9.831781012932406109E-37, 0.0000000000000000000, -2.815934000148506281E-22 ) ) ;
#179 = CARTESIAN_POINT ( 'NONE',  ( 0.1250000000000014433, 0.0000000000000000000, 0.3799999999999992273 ) ) ;
#180 = FACE_OUTER_BOUND ( 'NONE', #2, .T. ) ;
#181 = MANIFOLD_SOLID_BREP ( 'Corps-Déplacer/Copier1[1]', #82 ) ;
#182 = PLANE ( 'NONE',  #24 ) ;
#183 = PRODUCT_DEFINITION_FORMATION_WITH_SPECIFIED_SOURCE ( 'ANY', '', #162, .NOT_KNOWN. ) ;
#184 = APPROVAL_STATUS ( 'not_yet_approved' ) ;
#185 =( NAMED_UNIT ( * ) SI_UNIT ( $, .STERADIAN. ) SOLID_ANGLE_UNIT ( ) );
#186 = CALENDAR_DATE ( 2021, 9, 11 ) ;
#187 =( GEOMETRIC_REPRESENTATION_CONTEXT ( 3 ) GLOBAL_UNCERTAINTY_ASSIGNED_CONTEXT ( ( #242 ) ) GLOBAL_UNIT_ASSIGNED_CONTEXT ( ( #97, #64, #185 ) ) REPRESENTATION_CONTEXT ( 'NONE', 'WORKASPACE' ) );
#188 = EDGE_CURVE ( 'NONE', #101, #101, #154, .T. ) ;
#189 = CC_DESIGN_DATE_AND_TIME_ASSIGNMENT ( #123, #167, ( #143 ) ) ;
#190 = ADVANCED_FACE ( 'NONE', ( #52, #214 ), #63, .T. ) ;
#191 = CARTESIAN_POINT ( 'NONE',  ( 2.667806066754019931E-14, 0.0000000000000000000, 7.640900259366616432 ) ) ;
#192 = DIRECTION ( 'NONE',  ( 1.000000000000000000, 0.0000000000000000000, -3.491481338843133355E-15 ) ) ;
#193 = ORIENTED_EDGE ( 'NONE', *, *, #89, .T. ) ;
#194 = FACE_OUTER_BOUND ( 'NONE', #138, .T. ) ;
#195 = EDGE_LOOP ( 'NONE', ( #107 ) ) ;
#196 = DIRECTION ( 'NONE',  ( -3.491481338843133355E-15, 0.0000000000000000000, -1.000000000000000000 ) ) ;
#197 = ORIENTED_EDGE ( 'NONE', *, *, #89, .F. ) ;
#198 = PERSON_AND_ORGANIZATION_ROLE ( 'design_supplier' ) ;
#199 = MECHANICAL_CONTEXT ( 'NONE', #45, 'mechanical' ) ;
#200 = CIRCLE ( 'NONE', #153, 0.1931483474218597118 ) ;
#201 = APPROVAL_DATE_TIME ( #170, #31 ) ;
#202 = CALENDAR_DATE ( 2021, 9, 11 ) ;
#203 = CIRCLE ( 'NONE', #111, 2.000000000000000000 ) ;
#204 = CIRCLE ( 'NONE', #225, 0.1250000000000001110 ) ;
#205 = CC_DESIGN_PERSON_AND_ORGANIZATION_ASSIGNMENT ( #40, #240, ( #143 ) ) ;
#206 = ADVANCED_FACE ( 'NONE', ( #118, #174 ), #70, .T. ) ;
#207 = CARTESIAN_POINT ( 'NONE',  ( 2.667806066754019931E-14, 0.0000000000000000000, 7.640900259366616432 ) ) ;
#208 = CC_DESIGN_APPROVAL ( #43, ( #183 ) ) ;
#209 = EDGE_LOOP ( 'NONE', ( #51 ) ) ;
#210 = CARTESIAN_POINT ( 'NONE',  ( 1.326762908760389452E-15, 0.0000000000000000000, 0.3799999999999996159 ) ) ;
#211 = DIRECTION ( 'NONE',  ( -3.491481338843133355E-15, 0.0000000000000000000, -1.000000000000000000 ) ) ;
#212 = FACE_OUTER_BOUND ( 'NONE', #195, .T. ) ;
#213 = DIRECTION ( 'NONE',  ( 3.491481338843133355E-15, -0.0000000000000000000, 1.000000000000000000 ) ) ;
#214 = FACE_OUTER_BOUND ( 'NONE', #100, .T. ) ;
#215 = ORIENTED_EDGE ( 'NONE', *, *, #78, .T. ) ;
#216 = ADVANCED_FACE ( 'NONE', ( #130, #194 ), #230, .T. ) ;
#217 = SECURITY_CLASSIFICATION_LEVEL ( 'unclassified' ) ;
#218 = COORDINATED_UNIVERSAL_TIME_OFFSET ( 1, 0, .AHEAD. ) ;
#219 = APPROVAL_ROLE ( '' ) ;
#220 = CLOSED_SHELL ( 'NONE', ( #120, #216, #62 ) ) ;
#221 = AXIS2_PLACEMENT_3D ( 'NONE', #14, #113, #121 ) ;
#222 = EDGE_LOOP ( 'NONE', ( #193 ) ) ;
#223 = PERSON_AND_ORGANIZATION_ROLE ( 'design_owner' ) ;
#224 = APPROVAL_DATE_TIME ( #145, #95 ) ;
#225 = AXIS2_PLACEMENT_3D ( 'NONE', #210, #236, #150 ) ;
#226 = ORIENTED_EDGE ( 'NONE', *, *, #105, .T. ) ;
#227 = CC_DESIGN_PERSON_AND_ORGANIZATION_ASSIGNMENT ( #76, #198, ( #183 ) ) ;
#228 = DIRECTION ( 'NONE',  ( 1.000000000000000000, 0.0000000000000000000, -3.491481338843133355E-15 ) ) ;
#229 = PLANE ( 'NONE',  #231 ) ;
#230 = CYLINDRICAL_SURFACE ( 'NONE', #112, 0.1250000000000001110 ) ;
#231 = AXIS2_PLACEMENT_3D ( 'NONE', #35, #55, #32 ) ;
#232 = LOCAL_TIME ( 7, 59, 34.00000000000000000, #141 ) ;
#233 = FACE_OUTER_BOUND ( 'NONE', #209, .T. ) ;
#234 = FACE_BOUND ( 'NONE', #238, .T. ) ;
#235 = DIRECTION ( 'NONE',  ( 3.491481338843133355E-15, -0.0000000000000000000, 1.000000000000000000 ) ) ;
#236 = DIRECTION ( 'NONE',  ( 3.491481338843133355E-15, -0.0000000000000000000, 1.000000000000000000 ) ) ;
#237 = ADVANCED_FACE ( 'NONE', ( #132, #234 ), #25, .T. ) ;
#238 = EDGE_LOOP ( 'NONE', ( #175 ) ) ;
#239 = APPROVAL_ROLE ( '' ) ;
#240 = PERSON_AND_ORGANIZATION_ROLE ( 'classification_officer' ) ;
#241 = APPROVAL_PERSON_ORGANIZATION ( #140, #43, #219 ) ;
#242 = UNCERTAINTY_MEASURE_WITH_UNIT (LENGTH_MEASURE( 1.000000000000000082E-05 ), #97, 'distance_accuracy_value', 'NONE');
#243 = COORDINATED_UNIVERSAL_TIME_OFFSET ( 1, 0, .AHEAD. ) ;
ENDSEC;
END-ISO-10303-21;
