ISO-10303-21;
HEADER;
FILE_DESCRIPTION (( 'STEP AP203' ),
    '1' );
FILE_NAME ('334911.step',
    '2021-11-09T06:59:33',
    ( '' ),
    ( '' ),
    'SwSTEP 2.0',
    'SolidWorks 2019',
    '' );
FILE_SCHEMA (( 'CONFIG_CONTROL_DESIGN' ));
ENDSEC;

DATA;
#1 = CARTESIAN_POINT ( 'NONE',  ( 1.600000000000132871, 0.0000000000000000000, 37.99999999999999289 ) ) ;
#2 = AXIS2_PLACEMENT_3D ( 'NONE', #86, #163, #202 ) ;
#3 = EDGE_CURVE ( 'NONE', #99, #99, #124, .T. ) ;
#4 = AXIS2_PLACEMENT_3D ( 'NONE', #67, #52, #129 ) ;
#5 = EDGE_LOOP ( 'NONE', ( #161 ) ) ;
#6 = EDGE_LOOP ( 'NONE', ( #122 ) ) ;
#7 = MECHANICAL_CONTEXT ( 'NONE', #55, 'mechanical' ) ;
#8 = ADVANCED_FACE ( 'NONE', ( #70, #35 ), #31, .T. ) ;
#9 = FACE_OUTER_BOUND ( 'NONE', #125, .T. ) ;
#10 = FACE_OUTER_BOUND ( 'NONE', #232, .T. ) ;
#11 = APPLICATION_PROTOCOL_DEFINITION ( 'international standard', 'config_control_design', 1994, #55 ) ;
#12 = CALENDAR_DATE ( 2021, 9, 11 ) ;
#13 = DIRECTION ( 'NONE',  ( -3.491481338843133355E-15, 0.0000000000000000000, -1.000000000000000000 ) ) ;
#14 = PERSON_AND_ORGANIZATION ( #172, #151 ) ;
#15 = AXIS2_PLACEMENT_3D ( 'NONE', #94, #145, #147 ) ;
#16 = CARTESIAN_POINT ( 'NONE',  ( -4.915890506466203054E-37, 0.0000000000000000000, -1.407967000074253141E-22 ) ) ;
#17 = ADVANCED_FACE ( 'NONE', ( #89 ), #126, .T. ) ;
#18 = PERSON_AND_ORGANIZATION ( #172, #151 ) ;
#19 = DIRECTION ( 'NONE',  ( 1.000000000000000000, 0.0000000000000000000, -3.491481338843133355E-15 ) ) ;
#20 = DATE_TIME_ROLE ( 'creation_date' ) ;
#21 = APPLICATION_CONTEXT ( 'configuration controlled 3d designs of mechanical parts and assemblies' ) ;
#22 = CARTESIAN_POINT ( 'NONE',  ( 2.000000000000027089, 0.0000000000000000000, 7.677502799745057338 ) ) ;
#23 = DIRECTION ( 'NONE',  ( -1.000000000000000000, 0.0000000000000000000, 3.491481338843133355E-15 ) ) ;
#24 = EDGE_LOOP ( 'NONE', ( #62 ) ) ;
#25 = CC_DESIGN_DATE_AND_TIME_ASSIGNMENT ( #150, #20, ( #162 ) ) ;
#26 = AXIS2_PLACEMENT_3D ( 'NONE', #169, #32, #197 ) ;
#27 = ORIENTED_EDGE ( 'NONE', *, *, #78, .T. ) ;
#28 = CC_DESIGN_PERSON_AND_ORGANIZATION_ASSIGNMENT ( #72, #175, ( #87 ) ) ;
#29 = FACE_BOUND ( 'NONE', #44, .T. ) ;
#30 = DIRECTION ( 'NONE',  ( 1.000000000000000000, 0.0000000000000000000, -4.336808689942017736E-15 ) ) ;
#31 = CONICAL_SURFACE ( 'NONE', #199, 1.600000000000000089, 0.7853981633974512766 ) ;
#32 = DIRECTION ( 'NONE',  ( 3.491481338843133355E-15, -0.0000000000000000000, 1.000000000000000000 ) ) ;
#33 = DIRECTION ( 'NONE',  ( 1.000000000000000000, 0.0000000000000000000, -3.614007241618349165E-15 ) ) ;
#34 = CC_DESIGN_PERSON_AND_ORGANIZATION_ASSIGNMENT ( #88, #180, ( #203 ) ) ;
#35 = FACE_BOUND ( 'NONE', #84, .T. ) ;
#36 = AXIS2_PLACEMENT_3D ( 'NONE', #110, #164, #68 ) ;
#37 = COORDINATED_UNIVERSAL_TIME_OFFSET ( 1, 0, .AHEAD. ) ;
#38 = CARTESIAN_POINT ( 'NONE',  ( 0.0000000000000000000, 0.0000000000000000000, 0.0000000000000000000 ) ) ;
#39 = MANIFOLD_SOLID_BREP ( 'Corps-Déplacer/Copier1[2]', #210 ) ;
#40 = CIRCLE ( 'NONE', #100, 2.000000000000000000 ) ;
#41 = PLANE ( 'NONE',  #146 ) ;
#42 = DIRECTION ( 'NONE',  ( 3.491481338843133355E-15, -0.0000000000000000000, 1.000000000000000000 ) ) ;
#43 = LOCAL_TIME ( 7, 59, 33.00000000000000000, #114 ) ;
#44 = EDGE_LOOP ( 'NONE', ( #194 ) ) ;
#45 = ADVANCED_FACE ( 'NONE', ( #149, #56 ), #105, .T. ) ;
#46 = EDGE_LOOP ( 'NONE', ( #27 ) ) ;
#47 = ORIENTED_EDGE ( 'NONE', *, *, #106, .T. ) ;
#48 = CIRCLE ( 'NONE', #183, 2.000000000000000000 ) ;
#49 = ORIENTED_EDGE ( 'NONE', *, *, #218, .F. ) ;
#50 = EDGE_CURVE ( 'NONE', #61, #61, #48, .T. ) ;
#51 = DIRECTION ( 'NONE',  ( -1.000000000000000000, 0.0000000000000000000, 3.491481338843133355E-15 ) ) ;
#52 = DIRECTION ( 'NONE',  ( -3.491481338843133355E-15, 0.0000000000000000000, -1.000000000000000000 ) ) ;
#53 = EDGE_CURVE ( 'NONE', #228, #228, #215, .T. ) ;
#54 = DIRECTION ( 'NONE',  ( 1.000000000000000000, 0.0000000000000000000, -3.491481338843132961E-15 ) ) ;
#55 = APPLICATION_CONTEXT ( 'configuration controlled 3d designs of mechanical parts and assemblies' ) ;
#56 = FACE_OUTER_BOUND ( 'NONE', #24, .T. ) ;
#57 = DATE_AND_TIME ( #134, #212 ) ;
#58 = CC_DESIGN_SECURITY_CLASSIFICATION ( #87, ( #152 ) ) ;
#59 = SECURITY_CLASSIFICATION_LEVEL ( 'unclassified' ) ;
#60 = CC_DESIGN_APPROVAL ( #236, ( #162 ) ) ;
#61 = VERTEX_POINT ( 'NONE', #22 ) ;
#62 = ORIENTED_EDGE ( 'NONE', *, *, #50, .T. ) ;
#63 = EDGE_CURVE ( 'NONE', #231, #231, #173, .T. ) ;
#64 = AXIS2_PLACEMENT_3D ( 'NONE', #190, #42, #189 ) ;
#65 = ORIENTED_EDGE ( 'NONE', *, *, #3, .F. ) ;
#66 = EDGE_LOOP ( 'NONE', ( #216 ) ) ;
#67 = CARTESIAN_POINT ( 'NONE',  ( 8.030407079339203364E-16, -2.805373121306240258E-17, 0.2299999999999998990 ) ) ;
#68 = DIRECTION ( 'NONE',  ( 1.000000000000000000, 0.0000000000000000000, -3.614007241618349165E-15 ) ) ;
#69 = CC_DESIGN_PERSON_AND_ORGANIZATION_ASSIGNMENT ( #14, #96, ( #152 ) ) ;
#70 = FACE_OUTER_BOUND ( 'NONE', #66, .T. ) ;
#71 = CARTESIAN_POINT ( 'NONE',  ( 1.326762908760390423E-13, 0.0000000000000000000, 38.00000000000000000 ) ) ;
#72 = PERSON_AND_ORGANIZATION ( #172, #151 ) ;
#73 = APPROVAL_DATE_TIME ( #167, #236 ) ;
#74 = CC_DESIGN_APPROVAL ( #200, ( #152 ) ) ;
#75 = APPROVAL_ROLE ( '' ) ;
#76 = CARTESIAN_POINT ( 'NONE',  ( 1.326762908760390423E-13, 0.0000000000000000000, 38.00000000000000000 ) ) ;
#77 =( NAMED_UNIT ( * ) PLANE_ANGLE_UNIT ( ) SI_UNIT ( $, .RADIAN. ) );
#78 = EDGE_CURVE ( 'NONE', #230, #230, #187, .T. ) ;
#79 = FACE_OUTER_BOUND ( 'NONE', #191, .T. ) ;
#80 = AXIS2_PLACEMENT_3D ( 'NONE', #211, #239, #220 ) ;
#81 = VERTEX_POINT ( 'NONE', #158 ) ;
#82 = ORIENTED_EDGE ( 'NONE', *, *, #78, .F. ) ;
#83 = EDGE_LOOP ( 'NONE', ( #195 ) ) ;
#84 = EDGE_LOOP ( 'NONE', ( #213 ) ) ;
#85 = LOCAL_TIME ( 7, 59, 33.00000000000000000, #136 ) ;
#86 = CARTESIAN_POINT ( 'NONE',  ( 2.680585775422580254E-14, 0.0000000000000000000, 7.677502799745064443 ) ) ;
#87 = SECURITY_CLASSIFICATION ( '', '', #59 ) ;
#88 = PERSON_AND_ORGANIZATION ( #172, #151 ) ;
#89 = FACE_OUTER_BOUND ( 'NONE', #83, .T. ) ;
#90 = AXIS2_PLACEMENT_3D ( 'NONE', #38, #235, #127 ) ;
#91 = UNCERTAINTY_MEASURE_WITH_UNIT (LENGTH_MEASURE( 1.000000000000000082E-05 ), #138, 'distance_accuracy_value', 'NONE');
#92 = APPROVAL_STATUS ( 'not_yet_approved' ) ;
#93 = PRODUCT_DEFINITION_SHAPE ( 'NONE', 'NONE',  #162 ) ;
#94 = CARTESIAN_POINT ( 'NONE',  ( 0.0000000000000000000, 0.0000000000000000000, 0.0000000000000000000 ) ) ;
#95 =( NAMED_UNIT ( * ) SI_UNIT ( $, .STERADIAN. ) SOLID_ANGLE_UNIT ( ) );
#96 = PERSON_AND_ORGANIZATION_ROLE ( 'creator' ) ;
#97 = CARTESIAN_POINT ( 'NONE',  ( 1.312796983405018142E-13, 0.0000000000000000000, 37.60000000000000142 ) ) ;
#98 = APPROVAL_DATE_TIME ( #182, #200 ) ;
#99 = VERTEX_POINT ( 'NONE', #208 ) ;
#100 = AXIS2_PLACEMENT_3D ( 'NONE', #97, #188, #157 ) ;
#101 = ADVANCED_FACE ( 'NONE', ( #166, #10 ), #207, .F. ) ;
#102 =( GEOMETRIC_REPRESENTATION_CONTEXT ( 3 ) GLOBAL_UNCERTAINTY_ASSIGNED_CONTEXT ( ( #91 ) ) GLOBAL_UNIT_ASSIGNED_CONTEXT ( ( #138, #77, #95 ) ) REPRESENTATION_CONTEXT ( 'NONE', 'WORKASPACE' ) );
#103 = EDGE_LOOP ( 'NONE', ( #49 ) ) ;
#104 = ADVANCED_FACE ( 'NONE', ( #29, #9 ), #243, .T. ) ;
#105 = CYLINDRICAL_SURFACE ( 'NONE', #15, 2.000000000000000000 ) ;
#106 = EDGE_CURVE ( 'NONE', #81, #81, #143, .T. ) ;
#107 = DIRECTION ( 'NONE',  ( 3.491481338843133355E-15, -0.0000000000000000000, 1.000000000000000000 ) ) ;
#108 = APPROVAL_ROLE ( '' ) ;
#109 = FACE_OUTER_BOUND ( 'NONE', #46, .T. ) ;
#110 = CARTESIAN_POINT ( 'NONE',  ( 8.030407079339194490E-16, 0.0000000000000000000, 0.2299999999999996492 ) ) ;
#111 = PERSON_AND_ORGANIZATION ( #172, #151 ) ;
#112 = AXIS2_PLACEMENT_3D ( 'NONE', #128, #107, #33 ) ;
#113 = CALENDAR_DATE ( 2021, 9, 11 ) ;
#114 = COORDINATED_UNIVERSAL_TIME_OFFSET ( 1, 0, .AHEAD. ) ;
#115 = FACE_OUTER_BOUND ( 'NONE', #6, .T. ) ;
#116 = LOCAL_TIME ( 7, 59, 33.00000000000000000, #37 ) ;
#117 = CC_DESIGN_PERSON_AND_ORGANIZATION_ASSIGNMENT ( #111, #185, ( #162 ) ) ;
#118 = CARTESIAN_POINT ( 'NONE',  ( 2.000000000000131450, 0.0000000000000000000, 37.59999999999999432 ) ) ;
#119 = CLOSED_SHELL ( 'NONE', ( #45, #8, #148, #101, #104, #17 ) ) ;
#120 = MANIFOLD_SOLID_BREP ( 'Corps-Déplacer/Copier1[1]', #119 ) ;
#121 = EDGE_LOOP ( 'NONE', ( #82 ) ) ;
#122 = ORIENTED_EDGE ( 'NONE', *, *, #53, .T. ) ;
#123 = APPROVAL_STATUS ( 'not_yet_approved' ) ;
#124 = CIRCLE ( 'NONE', #80, 0.1431483474218600005 ) ;
#125 = EDGE_LOOP ( 'NONE', ( #214 ) ) ;
#126 = PLANE ( 'NONE',  #141 ) ;
#127 = DIRECTION ( 'NONE',  ( 1.000000000000000000, 0.0000000000000000000, 0.0000000000000000000 ) ) ;
#128 = CARTESIAN_POINT ( 'NONE',  ( 8.030407079339194490E-16, 0.0000000000000000000, 0.2299999999999996492 ) ) ;
#129 = DIRECTION ( 'NONE',  ( -1.000000000000000000, 0.0000000000000000000, 3.491481338843133355E-15 ) ) ;
#130 = CARTESIAN_POINT ( 'NONE',  ( 2.680585775422580254E-14, 0.0000000000000000000, 7.677502799745064443 ) ) ;
#131 = ADVANCED_FACE ( 'NONE', ( #234 ), #219, .F. ) ;
#132 = CARTESIAN_POINT ( 'NONE',  ( 1.326762908760390423E-13, 0.0000000000000000000, 38.00000000000000000 ) ) ;
#133 = APPROVAL_PERSON_ORGANIZATION ( #217, #236, #108 ) ;
#134 = CALENDAR_DATE ( 2021, 9, 11 ) ;
#135 = DATE_AND_TIME ( #156, #116 ) ;
#136 = COORDINATED_UNIVERSAL_TIME_OFFSET ( 1, 0, .AHEAD. ) ;
#137 = APPROVAL_PERSON_ORGANIZATION ( #222, #193, #170 ) ;
#138 =( LENGTH_UNIT ( ) NAMED_UNIT ( * ) SI_UNIT ( .MILLI., .METRE. ) );
#139 = ADVANCED_FACE ( 'NONE', ( #109, #79 ), #174, .T. ) ;
#140 = DIRECTION ( 'NONE',  ( 3.491481338843133355E-15, -0.0000000000000000000, 1.000000000000000000 ) ) ;
#141 = AXIS2_PLACEMENT_3D ( 'NONE', #221, #13, #51 ) ;
#142 = ORIENTED_EDGE ( 'NONE', *, *, #63, .F. ) ;
#143 = CIRCLE ( 'NONE', #36, 0.07499999999999998335 ) ;
#144 = APPLICATION_PROTOCOL_DEFINITION ( 'international standard', 'config_control_design', 1994, #21 ) ;
#145 = DIRECTION ( 'NONE',  ( 3.491481338843133355E-15, -0.0000000000000000000, 1.000000000000000000 ) ) ;
#146 = AXIS2_PLACEMENT_3D ( 'NONE', #16, #186, #23 ) ;
#147 = DIRECTION ( 'NONE',  ( 1.000000000000000000, 0.0000000000000000000, -3.491481338843133355E-15 ) ) ;
#148 = ADVANCED_FACE ( 'NONE', ( #115 ), #159, .T. ) ;
#149 = FACE_OUTER_BOUND ( 'NONE', #103, .T. ) ;
#150 = DATE_AND_TIME ( #113, #85 ) ;
#151 = ORGANIZATION ( 'UNSPECIFIED', 'UNSPECIFIED', '' ) ;
#152 = PRODUCT_DEFINITION_FORMATION_WITH_SPECIFIED_SOURCE ( 'ANY', '', #203, .NOT_KNOWN. ) ;
#153 = DATE_TIME_ROLE ( 'classification_date' ) ;
#154 = CARTESIAN_POINT ( 'NONE',  ( 0.07500000000000077438, 0.0000000000000000000, 0.2299999999999993716 ) ) ;
#155 = PRODUCT_RELATED_PRODUCT_CATEGORY ( 'detail', '', ( #203 ) ) ;
#156 = CALENDAR_DATE ( 2021, 9, 11 ) ;
#157 = DIRECTION ( 'NONE',  ( 1.000000000000000000, 0.0000000000000000000, -3.469446951953614189E-15 ) ) ;
#158 = CARTESIAN_POINT ( 'NONE',  ( 0.07500000000000077438, 0.0000000000000000000, 0.2299999999999993716 ) ) ;
#159 = PLANE ( 'NONE',  #233 ) ;
#160 = FACE_OUTER_BOUND ( 'NONE', #121, .T. ) ;
#161 = ORIENTED_EDGE ( 'NONE', *, *, #63, .T. ) ;
#162 = PRODUCT_DEFINITION ( 'UNKNOWN', '', #152, #240 ) ;
#163 = DIRECTION ( 'NONE',  ( 3.491481338843133355E-15, -0.0000000000000000000, 1.000000000000000000 ) ) ;
#164 = DIRECTION ( 'NONE',  ( 3.491481338843133355E-15, -0.0000000000000000000, 1.000000000000000000 ) ) ;
#165 = COORDINATED_UNIVERSAL_TIME_OFFSET ( 1, 0, .AHEAD. ) ;
#166 = FACE_OUTER_BOUND ( 'NONE', #178, .T. ) ;
#167 = DATE_AND_TIME ( #12, #192 ) ;
#168 = PERSON_AND_ORGANIZATION_ROLE ( 'design_supplier' ) ;
#169 = CARTESIAN_POINT ( 'NONE',  ( -9.831781012932406109E-37, 0.0000000000000000000, -2.815934000148506281E-22 ) ) ;
#170 = APPROVAL_ROLE ( '' ) ;
#171 = APPROVAL_DATE_TIME ( #57, #193 ) ;
#172 = PERSON ( 'UNSPECIFIED', 'UNSPECIFIED', 'UNSPECIFIED', ('UNSPECIFIED'), ('UNSPECIFIED'), ('UNSPECIFIED') ) ;
#173 = CIRCLE ( 'NONE', #112, 0.07499999999999998335 ) ;
#174 = CYLINDRICAL_SURFACE ( 'NONE', #64, 0.07499999999999998335 ) ;
#175 = PERSON_AND_ORGANIZATION_ROLE ( 'classification_officer' ) ;
#176 = AXIS2_PLACEMENT_3D ( 'NONE', #132, #241, #30 ) ;
#177 = CC_DESIGN_APPROVAL ( #193, ( #87 ) ) ;
#178 = EDGE_LOOP ( 'NONE', ( #47 ) ) ;
#179 = DIRECTION ( 'NONE',  ( 3.491481338843133355E-15, -0.0000000000000000000, 1.000000000000000000 ) ) ;
#180 = PERSON_AND_ORGANIZATION_ROLE ( 'design_owner' ) ;
#181 = DIRECTION ( 'NONE',  ( -3.491481338843133355E-15, 0.0000000000000000000, -1.000000000000000000 ) ) ;
#182 = DATE_AND_TIME ( #204, #43 ) ;
#183 = AXIS2_PLACEMENT_3D ( 'NONE', #130, #201, #198 ) ;
#184 = COORDINATED_UNIVERSAL_TIME_OFFSET ( 1, 0, .AHEAD. ) ;
#185 = PERSON_AND_ORGANIZATION_ROLE ( 'creator' ) ;
#186 = DIRECTION ( 'NONE',  ( -3.491481338843133355E-15, 0.0000000000000000000, -1.000000000000000000 ) ) ;
#187 = CIRCLE ( 'NONE', #26, 0.07499999999999998335 ) ;
#188 = DIRECTION ( 'NONE',  ( 3.491481338843133355E-15, -0.0000000000000000000, 1.000000000000000000 ) ) ;
#189 = DIRECTION ( 'NONE',  ( 1.000000000000000000, 0.0000000000000000000, -3.491481338843132961E-15 ) ) ;
#190 = CARTESIAN_POINT ( 'NONE',  ( 0.0000000000000000000, 0.0000000000000000000, 0.0000000000000000000 ) ) ;
#191 = EDGE_LOOP ( 'NONE', ( #142 ) ) ;
#192 = LOCAL_TIME ( 7, 59, 33.00000000000000000, #165 ) ;
#193 = APPROVAL ( #225, 'UNSPECIFIED' ) ;
#194 = ORIENTED_EDGE ( 'NONE', *, *, #3, .T. ) ;
#195 = ORIENTED_EDGE ( 'NONE', *, *, #106, .F. ) ;
#196 = AXIS2_PLACEMENT_3D ( 'NONE', #238, #179, #54 ) ;
#197 = DIRECTION ( 'NONE',  ( 1.000000000000000000, 0.0000000000000000000, -3.491481338843132961E-15 ) ) ;
#198 = DIRECTION ( 'NONE',  ( 1.000000000000000000, 0.0000000000000000000, -3.469446951953614189E-15 ) ) ;
#199 = AXIS2_PLACEMENT_3D ( 'NONE', #71, #181, #237 ) ;
#200 = APPROVAL ( #92, 'UNSPECIFIED' ) ;
#201 = DIRECTION ( 'NONE',  ( 3.491481338843133355E-15, -0.0000000000000000000, 1.000000000000000000 ) ) ;
#202 = DIRECTION ( 'NONE',  ( 1.000000000000000000, 0.0000000000000000000, -3.469446951953614189E-15 ) ) ;
#203 = PRODUCT ( '334911', '334911', '', ( #7 ) ) ;
#204 = CALENDAR_DATE ( 2021, 9, 11 ) ;
#205 = ADVANCED_FACE ( 'NONE', ( #160 ), #41, .T. ) ;
#206 = CARTESIAN_POINT ( 'NONE',  ( 0.07499999999999998335, 0.0000000000000000000, -2.618613820066349284E-16 ) ) ;
#207 = TOROIDAL_SURFACE ( 'NONE', #196, 2.075000000000000178, 2.000000000000000000 ) ;
#208 = CARTESIAN_POINT ( 'NONE',  ( 0.1431483474218626095, 0.0000000000000000000, 0.7476380902050279165 ) ) ;
#209 = CC_DESIGN_PERSON_AND_ORGANIZATION_ASSIGNMENT ( #223, #168, ( #152 ) ) ;
#210 = CLOSED_SHELL ( 'NONE', ( #205, #139, #131 ) ) ;
#211 = CARTESIAN_POINT ( 'NONE',  ( 2.610364440159176027E-15, 0.0000000000000000000, 0.7476380902050284716 ) ) ;
#212 = LOCAL_TIME ( 7, 59, 33.00000000000000000, #184 ) ;
#213 = ORIENTED_EDGE ( 'NONE', *, *, #53, .F. ) ;
#214 = ORIENTED_EDGE ( 'NONE', *, *, #50, .F. ) ;
#215 = CIRCLE ( 'NONE', #176, 1.600000000000000089 ) ;
#216 = ORIENTED_EDGE ( 'NONE', *, *, #218, .T. ) ;
#217 = PERSON_AND_ORGANIZATION ( #172, #151 ) ;
#218 = EDGE_CURVE ( 'NONE', #242, #242, #40, .T. ) ;
#219 = PLANE ( 'NONE',  #4 ) ;
#220 = DIRECTION ( 'NONE',  ( 1.000000000000000000, 0.0000000000000000000, -3.786988086178693069E-15 ) ) ;
#221 = CARTESIAN_POINT ( 'NONE',  ( 8.030407079339203364E-16, -2.805373121306240258E-17, 0.2299999999999998990 ) ) ;
#222 = PERSON_AND_ORGANIZATION ( #172, #151 ) ;
#223 = PERSON_AND_ORGANIZATION ( #172, #151 ) ;
#224 = ADVANCED_BREP_SHAPE_REPRESENTATION ( '334911', ( #120, #39, #90 ), #102 ) ;
#225 = APPROVAL_STATUS ( 'not_yet_approved' ) ;
#226 = SHAPE_DEFINITION_REPRESENTATION ( #93, #224 ) ;
#227 = CC_DESIGN_DATE_AND_TIME_ASSIGNMENT ( #135, #153, ( #87 ) ) ;
#228 = VERTEX_POINT ( 'NONE', #1 ) ;
#229 = APPROVAL_PERSON_ORGANIZATION ( #18, #200, #75 ) ;
#230 = VERTEX_POINT ( 'NONE', #206 ) ;
#231 = VERTEX_POINT ( 'NONE', #154 ) ;
#232 = EDGE_LOOP ( 'NONE', ( #65 ) ) ;
#233 = AXIS2_PLACEMENT_3D ( 'NONE', #76, #140, #19 ) ;
#234 = FACE_OUTER_BOUND ( 'NONE', #5, .T. ) ;
#235 = DIRECTION ( 'NONE',  ( 0.0000000000000000000, 0.0000000000000000000, 1.000000000000000000 ) ) ;
#236 = APPROVAL ( #123, 'UNSPECIFIED' ) ;
#237 = DIRECTION ( 'NONE',  ( -1.000000000000000000, 0.0000000000000000000, 4.336808689942017736E-15 ) ) ;
#238 = CARTESIAN_POINT ( 'NONE',  ( 8.030407079339203364E-16, 0.0000000000000000000, 0.2299999999999998990 ) ) ;
#239 = DIRECTION ( 'NONE',  ( 3.491481338843133355E-15, -0.0000000000000000000, 1.000000000000000000 ) ) ;
#240 = DESIGN_CONTEXT ( 'detailed design', #21, 'design' ) ;
#241 = DIRECTION ( 'NONE',  ( 3.491481338843133355E-15, -0.0000000000000000000, 1.000000000000000000 ) ) ;
#242 = VERTEX_POINT ( 'NONE', #118 ) ;
#243 = CONICAL_SURFACE ( 'NONE', #2, 2.000000000000000000, 0.2617993877991428020 ) ;
ENDSEC;
END-ISO-10303-21;
