ISO-10303-21;
HEADER;
FILE_DESCRIPTION (( 'STEP AP203' ),
    '1' );
FILE_NAME ('334910.step',
    '2021-11-09T06:59:32',
    ( '' ),
    ( '' ),
    'SwSTEP 2.0',
    'SolidWorks 2019',
    '' );
FILE_SCHEMA (( 'CONFIG_CONTROL_DESIGN' ));
ENDSEC;

DATA;
#1 = DIRECTION ( 'NONE',  ( 1.000000000000000000, 0.0000000000000000000, -3.469446951953614189E-15 ) ) ;
#2 = AXIS2_PLACEMENT_3D ( 'NONE', #221, #99, #201 ) ;
#3 = CC_DESIGN_PERSON_AND_ORGANIZATION_ASSIGNMENT ( #50, #11, ( #34 ) ) ;
#4 = PLANE ( 'NONE',  #182 ) ;
#5 = PRODUCT_DEFINITION_SHAPE ( 'NONE', 'NONE',  #161 ) ;
#6 = CARTESIAN_POINT ( 'NONE',  ( 0.05000000000000065503, 0.0000000000000000000, 0.1499999999999994116 ) ) ;
#7 = CIRCLE ( 'NONE', #96, 0.05000000000000012768 ) ;
#8 = VERTEX_POINT ( 'NONE', #124 ) ;
#9 = PERSON_AND_ORGANIZATION ( #21, #24 ) ;
#10 = CC_DESIGN_PERSON_AND_ORGANIZATION_ASSIGNMENT ( #184, #26, ( #161 ) ) ;
#11 = PERSON_AND_ORGANIZATION_ROLE ( 'creator' ) ;
#12 = PERSON_AND_ORGANIZATION ( #21, #24 ) ;
#13 = EDGE_LOOP ( 'NONE', ( #219 ) ) ;
#14 = EDGE_LOOP ( 'NONE', ( #196 ) ) ;
#15 = CARTESIAN_POINT ( 'NONE',  ( 5.237222008264694116E-16, -2.032879073410316500E-17, 0.1499999999999998279 ) ) ;
#16 = EDGE_CURVE ( 'NONE', #177, #177, #216, .T. ) ;
#17 = DIRECTION ( 'NONE',  ( 1.000000000000000000, 0.0000000000000000000, -3.469446951953614189E-15 ) ) ;
#18 = TOROIDAL_SURFACE ( 'NONE', #154, 2.050000000000000266, 2.000000000000000000 ) ;
#19 = FACE_OUTER_BOUND ( 'NONE', #89, .T. ) ;
#20 = CONICAL_SURFACE ( 'NONE', #159, 1.600000000000000089, 0.7853981633974512766 ) ;
#21 = PERSON ( 'UNSPECIFIED', 'UNSPECIFIED', 'UNSPECIFIED', ('UNSPECIFIED'), ('UNSPECIFIED'), ('UNSPECIFIED') ) ;
#22 = CARTESIAN_POINT ( 'NONE',  ( 2.685229889087438754E-14, 0.0000000000000000000, 7.690804069934288556 ) ) ;
#23 = FACE_OUTER_BOUND ( 'NONE', #214, .T. ) ;
#24 = ORGANIZATION ( 'UNSPECIFIED', 'UNSPECIFIED', '' ) ;
#25 =( NAMED_UNIT ( * ) SI_UNIT ( $, .STERADIAN. ) SOLID_ANGLE_UNIT ( ) );
#26 = PERSON_AND_ORGANIZATION_ROLE ( 'creator' ) ;
#27 = PERSON_AND_ORGANIZATION ( #21, #24 ) ;
#28 = CIRCLE ( 'NONE', #170, 2.000000000000000000 ) ;
#29 = COORDINATED_UNIVERSAL_TIME_OFFSET ( 1, 0, .AHEAD. ) ;
#30 = DATE_AND_TIME ( #163, #180 ) ;
#31 = AXIS2_PLACEMENT_3D ( 'NONE', #76, #171, #222 ) ;
#32 = PERSON_AND_ORGANIZATION ( #21, #24 ) ;
#33 = EDGE_CURVE ( 'NONE', #8, #8, #7, .T. ) ;
#34 = PRODUCT_DEFINITION_FORMATION_WITH_SPECIFIED_SOURCE ( 'ANY', '', #121, .NOT_KNOWN. ) ;
#35 = EDGE_LOOP ( 'NONE', ( #67 ) ) ;
#36 = DIRECTION ( 'NONE',  ( 3.491481338843133355E-15, -0.0000000000000000000, 1.000000000000000000 ) ) ;
#37 = FACE_OUTER_BOUND ( 'NONE', #69, .T. ) ;
#38 = CARTESIAN_POINT ( 'NONE',  ( 1.326762908760390423E-13, 0.0000000000000000000, 38.00000000000000000 ) ) ;
#39 = CIRCLE ( 'NONE', #2, 0.05000000000000012768 ) ;
#40 = CARTESIAN_POINT ( 'NONE',  ( -4.915890506466203054E-37, 0.0000000000000000000, -1.407967000074253141E-22 ) ) ;
#41 = FACE_OUTER_BOUND ( 'NONE', #13, .T. ) ;
#42 = APPROVAL_PERSON_ORGANIZATION ( #238, #122, #48 ) ;
#43 = CONICAL_SURFACE ( 'NONE', #215, 2.000000000000000000, 0.2617993877991428020 ) ;
#44 = CARTESIAN_POINT ( 'NONE',  ( 0.0000000000000000000, 0.0000000000000000000, 0.0000000000000000000 ) ) ;
#45 = EDGE_CURVE ( 'NONE', #230, #230, #28, .T. ) ;
#46 = DIRECTION ( 'NONE',  ( 0.0000000000000000000, 0.0000000000000000000, 1.000000000000000000 ) ) ;
#47 = CARTESIAN_POINT ( 'NONE',  ( 1.326762908760390423E-13, 0.0000000000000000000, 38.00000000000000000 ) ) ;
#48 = APPROVAL_ROLE ( '' ) ;
#49 = ORIENTED_EDGE ( 'NONE', *, *, #183, .T. ) ;
#50 = PERSON_AND_ORGANIZATION ( #21, #24 ) ;
#51 = EDGE_LOOP ( 'NONE', ( #234 ) ) ;
#52 = EDGE_CURVE ( 'NONE', #192, #192, #97, .T. ) ;
#53 = DIRECTION ( 'NONE',  ( 3.491481338843133355E-15, -0.0000000000000000000, 1.000000000000000000 ) ) ;
#54 = DIRECTION ( 'NONE',  ( 3.491481338843133355E-15, -0.0000000000000000000, 1.000000000000000000 ) ) ;
#55 = CARTESIAN_POINT ( 'NONE',  ( 5.237222008264685242E-16, 0.0000000000000000000, 0.1499999999999995781 ) ) ;
#56 =( GEOMETRIC_REPRESENTATION_CONTEXT ( 3 ) GLOBAL_UNCERTAINTY_ASSIGNED_CONTEXT ( ( #110 ) ) GLOBAL_UNIT_ASSIGNED_CONTEXT ( ( #125, #210, #25 ) ) REPRESENTATION_CONTEXT ( 'NONE', 'WORKASPACE' ) );
#57 = DIRECTION ( 'NONE',  ( 1.000000000000000000, 0.0000000000000000000, -3.491481338843133355E-15 ) ) ;
#58 = FACE_OUTER_BOUND ( 'NONE', #14, .T. ) ;
#59 = DATE_AND_TIME ( #65, #131 ) ;
#60 = CC_DESIGN_PERSON_AND_ORGANIZATION_ASSIGNMENT ( #32, #91, ( #34 ) ) ;
#61 = AXIS2_PLACEMENT_3D ( 'NONE', #40, #120, #155 ) ;
#62 = CALENDAR_DATE ( 2021, 9, 11 ) ;
#63 = ADVANCED_FACE ( 'NONE', ( #140 ), #4, .T. ) ;
#64 = DIRECTION ( 'NONE',  ( 1.000000000000000000, 0.0000000000000000000, -3.491481338843133355E-15 ) ) ;
#65 = CALENDAR_DATE ( 2021, 9, 11 ) ;
#66 = APPROVAL_STATUS ( 'not_yet_approved' ) ;
#67 = ORIENTED_EDGE ( 'NONE', *, *, #83, .T. ) ;
#68 = DATE_TIME_ROLE ( 'classification_date' ) ;
#69 = EDGE_LOOP ( 'NONE', ( #108 ) ) ;
#70 = APPLICATION_CONTEXT ( 'configuration controlled 3d designs of mechanical parts and assemblies' ) ;
#71 = ORIENTED_EDGE ( 'NONE', *, *, #16, .T. ) ;
#72 = CC_DESIGN_PERSON_AND_ORGANIZATION_ASSIGNMENT ( #27, #105, ( #121 ) ) ;
#73 = ORIENTED_EDGE ( 'NONE', *, *, #242, .F. ) ;
#74 = DIRECTION ( 'NONE',  ( 3.491481338843133355E-15, -0.0000000000000000000, 1.000000000000000000 ) ) ;
#75 = LOCAL_TIME ( 7, 59, 32.00000000000000000, #29 ) ;
#76 = CARTESIAN_POINT ( 'NONE',  ( 5.237222008264694116E-16, -2.032879073410316500E-17, 0.1499999999999998279 ) ) ;
#77 = FACE_OUTER_BOUND ( 'NONE', #237, .T. ) ;
#78 = ADVANCED_FACE ( 'NONE', ( #134, #172 ), #20, .T. ) ;
#79 = DIRECTION ( 'NONE',  ( -1.000000000000000000, 0.0000000000000000000, 3.491481338843133355E-15 ) ) ;
#80 = CC_DESIGN_APPROVAL ( #122, ( #126 ) ) ;
#81 = DIRECTION ( 'NONE',  ( 1.000000000000000000, 0.0000000000000000000, -3.252606517456505019E-15 ) ) ;
#82 = COORDINATED_UNIVERSAL_TIME_OFFSET ( 1, 0, .AHEAD. ) ;
#83 = EDGE_CURVE ( 'NONE', #212, #212, #133, .T. ) ;
#84 = CLOSED_SHELL ( 'NONE', ( #199, #235, #194 ) ) ;
#85 = DIRECTION ( 'NONE',  ( 3.491481338843133355E-15, -0.0000000000000000000, 1.000000000000000000 ) ) ;
#86 = VERTEX_POINT ( 'NONE', #143 ) ;
#87 = PERSON_AND_ORGANIZATION_ROLE ( 'classification_officer' ) ;
#88 = EDGE_LOOP ( 'NONE', ( #132 ) ) ;
#89 = EDGE_LOOP ( 'NONE', ( #218 ) ) ;
#90 = DESIGN_CONTEXT ( 'detailed design', #70, 'design' ) ;
#91 = PERSON_AND_ORGANIZATION_ROLE ( 'design_supplier' ) ;
#92 = ORIENTED_EDGE ( 'NONE', *, *, #45, .F. ) ;
#93 = PLANE ( 'NONE',  #31 ) ;
#94 = DIRECTION ( 'NONE',  ( 1.000000000000000000, 0.0000000000000000000, -3.491481338843133355E-15 ) ) ;
#95 = LOCAL_TIME ( 7, 59, 32.00000000000000000, #236 ) ;
#96 = AXIS2_PLACEMENT_3D ( 'NONE', #55, #54, #81 ) ;
#97 = CIRCLE ( 'NONE', #229, 0.05000000000000012768 ) ;
#98 = CYLINDRICAL_SURFACE ( 'NONE', #220, 0.05000000000000012768 ) ;
#99 = DIRECTION ( 'NONE',  ( 3.491481338843133355E-15, -0.0000000000000000000, 1.000000000000000000 ) ) ;
#100 = APPLICATION_CONTEXT ( 'configuration controlled 3d designs of mechanical parts and assemblies' ) ;
#101 = DIRECTION ( 'NONE',  ( 1.000000000000000000, 0.0000000000000000000, -3.252606517456505019E-15 ) ) ;
#102 = DATE_AND_TIME ( #62, #75 ) ;
#103 = APPLICATION_PROTOCOL_DEFINITION ( 'international standard', 'config_control_design', 1994, #70 ) ;
#104 = DATE_TIME_ROLE ( 'creation_date' ) ;
#105 = PERSON_AND_ORGANIZATION_ROLE ( 'design_owner' ) ;
#106 = APPROVAL_DATE_TIME ( #102, #178 ) ;
#107 = AXIS2_PLACEMENT_3D ( 'NONE', #15, #174, #79 ) ;
#108 = ORIENTED_EDGE ( 'NONE', *, *, #16, .F. ) ;
#109 = APPROVAL_DATE_TIME ( #129, #122 ) ;
#110 = UNCERTAINTY_MEASURE_WITH_UNIT (LENGTH_MEASURE( 1.000000000000000082E-05 ), #125, 'distance_accuracy_value', 'NONE');
#111 = EDGE_LOOP ( 'NONE', ( #92 ) ) ;
#112 = MANIFOLD_SOLID_BREP ( 'Corps-Déplacer/Copier1[1]', #138 ) ;
#113 = CC_DESIGN_APPROVAL ( #178, ( #161 ) ) ;
#114 = ORIENTED_EDGE ( 'NONE', *, *, #33, .T. ) ;
#115 = CARTESIAN_POINT ( 'NONE',  ( 2.685229889087438754E-14, 0.0000000000000000000, 7.690804069934288556 ) ) ;
#116 = ADVANCED_BREP_SHAPE_REPRESENTATION ( '334910', ( #112, #186, #197 ), #56 ) ;
#117 = DIRECTION ( 'NONE',  ( 3.491481338843133355E-15, -0.0000000000000000000, 1.000000000000000000 ) ) ;
#118 = AXIS2_PLACEMENT_3D ( 'NONE', #223, #149, #57 ) ;
#119 = DIRECTION ( 'NONE',  ( -3.491481338843133355E-15, 0.0000000000000000000, -1.000000000000000000 ) ) ;
#120 = DIRECTION ( 'NONE',  ( -3.491481338843133355E-15, 0.0000000000000000000, -1.000000000000000000 ) ) ;
#121 = PRODUCT ( '334910', '334910', '', ( #181 ) ) ;
#122 = APPROVAL ( #66, 'UNSPECIFIED' ) ;
#123 = DIRECTION ( 'NONE',  ( 1.000000000000000000, 0.0000000000000000000, -3.670646932078551020E-15 ) ) ;
#124 = CARTESIAN_POINT ( 'NONE',  ( 0.05000000000000065503, 0.0000000000000000000, 0.1499999999999994116 ) ) ;
#125 =( LENGTH_UNIT ( ) NAMED_UNIT ( * ) SI_UNIT ( .MILLI., .METRE. ) );
#126 = SECURITY_CLASSIFICATION ( '', '', #165 ) ;
#127 = DIRECTION ( 'NONE',  ( 1.000000000000000000, 0.0000000000000000000, 0.0000000000000000000 ) ) ;
#128 = ADVANCED_FACE ( 'NONE', ( #224, #136 ), #150, .T. ) ;
#129 = DATE_AND_TIME ( #198, #95 ) ;
#130 = ORIENTED_EDGE ( 'NONE', *, *, #52, .T. ) ;
#131 = LOCAL_TIME ( 7, 59, 32.00000000000000000, #82 ) ;
#132 = ORIENTED_EDGE ( 'NONE', *, *, #45, .T. ) ;
#133 = CIRCLE ( 'NONE', #147, 2.000000000000000000 ) ;
#134 = FACE_OUTER_BOUND ( 'NONE', #88, .T. ) ;
#135 = CC_DESIGN_DATE_AND_TIME_ASSIGNMENT ( #59, #104, ( #161 ) ) ;
#136 = FACE_OUTER_BOUND ( 'NONE', #35, .T. ) ;
#137 = CARTESIAN_POINT ( 'NONE',  ( 0.0000000000000000000, 0.0000000000000000000, 0.0000000000000000000 ) ) ;
#138 = CLOSED_SHELL ( 'NONE', ( #128, #78, #63, #226, #148, #213 ) ) ;
#139 = PLANE ( 'NONE',  #61 ) ;
#140 = FACE_OUTER_BOUND ( 'NONE', #51, .T. ) ;
#141 = APPROVAL_ROLE ( '' ) ;
#142 = CALENDAR_DATE ( 2021, 9, 11 ) ;
#143 = CARTESIAN_POINT ( 'NONE',  ( 0.05000000000000012768, 0.0000000000000000000, -1.745743485355571369E-16 ) ) ;
#144 = APPROVAL_PERSON_ORGANIZATION ( #156, #178, #157 ) ;
#145 = APPROVAL_DATE_TIME ( #208, #152 ) ;
#146 = CARTESIAN_POINT ( 'NONE',  ( 2.331045933051725595E-15, 0.0000000000000000000, 0.6676380902050285115 ) ) ;
#147 = AXIS2_PLACEMENT_3D ( 'NONE', #22, #175, #17 ) ;
#148 = ADVANCED_FACE ( 'NONE', ( #173, #41 ), #43, .T. ) ;
#149 = DIRECTION ( 'NONE',  ( 3.491481338843133355E-15, -0.0000000000000000000, 1.000000000000000000 ) ) ;
#150 = CYLINDRICAL_SURFACE ( 'NONE', #118, 2.000000000000000000 ) ;
#151 = FACE_OUTER_BOUND ( 'NONE', #164, .T. ) ;
#152 = APPROVAL ( #162, 'UNSPECIFIED' ) ;
#153 = CARTESIAN_POINT ( 'NONE',  ( 5.237222008264685242E-16, 0.0000000000000000000, 0.1499999999999995781 ) ) ;
#154 = AXIS2_PLACEMENT_3D ( 'NONE', #240, #74, #200 ) ;
#155 = DIRECTION ( 'NONE',  ( -1.000000000000000000, 0.0000000000000000000, 3.491481338843133355E-15 ) ) ;
#156 = PERSON_AND_ORGANIZATION ( #21, #24 ) ;
#157 = APPROVAL_ROLE ( '' ) ;
#158 = CARTESIAN_POINT ( 'NONE',  ( 1.600000000000132871, 0.0000000000000000000, 37.99999999999999289 ) ) ;
#159 = AXIS2_PLACEMENT_3D ( 'NONE', #38, #119, #204 ) ;
#160 = CARTESIAN_POINT ( 'NONE',  ( 0.1181483474218624902, 0.0000000000000000000, 0.6676380902050280675 ) ) ;
#161 = PRODUCT_DEFINITION ( 'UNKNOWN', '', #34, #90 ) ;
#162 = APPROVAL_STATUS ( 'not_yet_approved' ) ;
#163 = CALENDAR_DATE ( 2021, 9, 11 ) ;
#164 = EDGE_LOOP ( 'NONE', ( #49 ) ) ;
#165 = SECURITY_CLASSIFICATION_LEVEL ( 'unclassified' ) ;
#166 = EDGE_LOOP ( 'NONE', ( #71 ) ) ;
#167 = EDGE_LOOP ( 'NONE', ( #239 ) ) ;
#168 = PRODUCT_RELATED_PRODUCT_CATEGORY ( 'detail', '', ( #121 ) ) ;
#169 = CIRCLE ( 'NONE', #202, 1.600000000000000089 ) ;
#170 = AXIS2_PLACEMENT_3D ( 'NONE', #187, #117, #203 ) ;
#171 = DIRECTION ( 'NONE',  ( -3.491481338843133355E-15, 0.0000000000000000000, -1.000000000000000000 ) ) ;
#172 = FACE_BOUND ( 'NONE', #185, .T. ) ;
#173 = FACE_BOUND ( 'NONE', #166, .T. ) ;
#174 = DIRECTION ( 'NONE',  ( -3.491481338843133355E-15, 0.0000000000000000000, -1.000000000000000000 ) ) ;
#175 = DIRECTION ( 'NONE',  ( 3.491481338843133355E-15, -0.0000000000000000000, 1.000000000000000000 ) ) ;
#176 = APPROVAL_PERSON_ORGANIZATION ( #9, #152, #141 ) ;
#177 = VERTEX_POINT ( 'NONE', #160 ) ;
#178 = APPROVAL ( #193, 'UNSPECIFIED' ) ;
#179 = VERTEX_POINT ( 'NONE', #158 ) ;
#180 = LOCAL_TIME ( 7, 59, 32.00000000000000000, #233 ) ;
#181 = MECHANICAL_CONTEXT ( 'NONE', #100, 'mechanical' ) ;
#182 = AXIS2_PLACEMENT_3D ( 'NONE', #243, #188, #94 ) ;
#183 = EDGE_CURVE ( 'NONE', #86, #86, #39, .T. ) ;
#184 = PERSON_AND_ORGANIZATION ( #21, #24 ) ;
#185 = EDGE_LOOP ( 'NONE', ( #73 ) ) ;
#186 = MANIFOLD_SOLID_BREP ( 'Corps-Déplacer/Copier1[2]', #84 ) ;
#187 = CARTESIAN_POINT ( 'NONE',  ( 1.312796983405018142E-13, 0.0000000000000000000, 37.60000000000000142 ) ) ;
#188 = DIRECTION ( 'NONE',  ( 3.491481338843133355E-15, -0.0000000000000000000, 1.000000000000000000 ) ) ;
#189 = FACE_OUTER_BOUND ( 'NONE', #167, .T. ) ;
#190 = CC_DESIGN_APPROVAL ( #152, ( #34 ) ) ;
#191 = CC_DESIGN_PERSON_AND_ORGANIZATION_ASSIGNMENT ( #12, #87, ( #126 ) ) ;
#192 = VERTEX_POINT ( 'NONE', #6 ) ;
#193 = APPROVAL_STATUS ( 'not_yet_approved' ) ;
#194 = ADVANCED_FACE ( 'NONE', ( #77 ), #241, .F. ) ;
#195 = AXIS2_PLACEMENT_3D ( 'NONE', #146, #205, #123 ) ;
#196 = ORIENTED_EDGE ( 'NONE', *, *, #183, .F. ) ;
#197 = AXIS2_PLACEMENT_3D ( 'NONE', #44, #46, #127 ) ;
#198 = CALENDAR_DATE ( 2021, 9, 11 ) ;
#199 = ADVANCED_FACE ( 'NONE', ( #58 ), #139, .T. ) ;
#200 = DIRECTION ( 'NONE',  ( 1.000000000000000000, 0.0000000000000000000, -3.491481338843133750E-15 ) ) ;
#201 = DIRECTION ( 'NONE',  ( 1.000000000000000000, 0.0000000000000000000, -3.491481338843133355E-15 ) ) ;
#202 = AXIS2_PLACEMENT_3D ( 'NONE', #47, #85, #207 ) ;
#203 = DIRECTION ( 'NONE',  ( 1.000000000000000000, 0.0000000000000000000, -3.469446951953614189E-15 ) ) ;
#204 = DIRECTION ( 'NONE',  ( -1.000000000000000000, 0.0000000000000000000, 4.336808689942017736E-15 ) ) ;
#205 = DIRECTION ( 'NONE',  ( 3.491481338843133355E-15, -0.0000000000000000000, 1.000000000000000000 ) ) ;
#206 = CC_DESIGN_DATE_AND_TIME_ASSIGNMENT ( #30, #68, ( #126 ) ) ;
#207 = DIRECTION ( 'NONE',  ( 1.000000000000000000, 0.0000000000000000000, -4.336808689942017736E-15 ) ) ;
#208 = DATE_AND_TIME ( #142, #211 ) ;
#209 = CARTESIAN_POINT ( 'NONE',  ( 2.000000000000131450, 0.0000000000000000000, 37.59999999999999432 ) ) ;
#210 =( NAMED_UNIT ( * ) PLANE_ANGLE_UNIT ( ) SI_UNIT ( $, .RADIAN. ) );
#211 = LOCAL_TIME ( 7, 59, 32.00000000000000000, #228 ) ;
#212 = VERTEX_POINT ( 'NONE', #231 ) ;
#213 = ADVANCED_FACE ( 'NONE', ( #189 ), #93, .T. ) ;
#214 = EDGE_LOOP ( 'NONE', ( #130 ) ) ;
#215 = AXIS2_PLACEMENT_3D ( 'NONE', #115, #53, #1 ) ;
#216 = CIRCLE ( 'NONE', #195, 0.1181483474218601587 ) ;
#217 = SHAPE_DEFINITION_REPRESENTATION ( #5, #116 ) ;
#218 = ORIENTED_EDGE ( 'NONE', *, *, #33, .F. ) ;
#219 = ORIENTED_EDGE ( 'NONE', *, *, #83, .F. ) ;
#220 = AXIS2_PLACEMENT_3D ( 'NONE', #137, #225, #64 ) ;
#221 = CARTESIAN_POINT ( 'NONE',  ( -9.831781012932406109E-37, 0.0000000000000000000, -2.815934000148506281E-22 ) ) ;
#222 = DIRECTION ( 'NONE',  ( -1.000000000000000000, 0.0000000000000000000, 3.491481338843133355E-15 ) ) ;
#223 = CARTESIAN_POINT ( 'NONE',  ( 0.0000000000000000000, 0.0000000000000000000, 0.0000000000000000000 ) ) ;
#224 = FACE_OUTER_BOUND ( 'NONE', #111, .T. ) ;
#225 = DIRECTION ( 'NONE',  ( 3.491481338843133355E-15, -0.0000000000000000000, 1.000000000000000000 ) ) ;
#226 = ADVANCED_FACE ( 'NONE', ( #23, #37 ), #18, .F. ) ;
#227 = CC_DESIGN_SECURITY_CLASSIFICATION ( #126, ( #34 ) ) ;
#228 = COORDINATED_UNIVERSAL_TIME_OFFSET ( 1, 0, .AHEAD. ) ;
#229 = AXIS2_PLACEMENT_3D ( 'NONE', #153, #36, #101 ) ;
#230 = VERTEX_POINT ( 'NONE', #209 ) ;
#231 = CARTESIAN_POINT ( 'NONE',  ( 2.000000000000027089, 0.0000000000000000000, 7.690804069934281451 ) ) ;
#232 = APPLICATION_PROTOCOL_DEFINITION ( 'international standard', 'config_control_design', 1994, #100 ) ;
#233 = COORDINATED_UNIVERSAL_TIME_OFFSET ( 1, 0, .AHEAD. ) ;
#234 = ORIENTED_EDGE ( 'NONE', *, *, #242, .T. ) ;
#235 = ADVANCED_FACE ( 'NONE', ( #151, #19 ), #98, .T. ) ;
#236 = COORDINATED_UNIVERSAL_TIME_OFFSET ( 1, 0, .AHEAD. ) ;
#237 = EDGE_LOOP ( 'NONE', ( #114 ) ) ;
#238 = PERSON_AND_ORGANIZATION ( #21, #24 ) ;
#239 = ORIENTED_EDGE ( 'NONE', *, *, #52, .F. ) ;
#240 = CARTESIAN_POINT ( 'NONE',  ( 5.237222008264695103E-16, 0.0000000000000000000, 0.1499999999999998557 ) ) ;
#241 = PLANE ( 'NONE',  #107 ) ;
#242 = EDGE_CURVE ( 'NONE', #179, #179, #169, .T. ) ;
#243 = CARTESIAN_POINT ( 'NONE',  ( 1.326762908760390423E-13, 0.0000000000000000000, 38.00000000000000000 ) ) ;
ENDSEC;
END-ISO-10303-21;
