ISO-10303-21;
HEADER;
FILE_DESCRIPTION (( 'STEP AP203' ),
    '1' );
FILE_NAME ('334909.step',
    '2021-11-15T07:42:04',
    ( '' ),
    ( '' ),
    'SwSTEP 2.0',
    'SolidWorks 2019',
    '' );
FILE_SCHEMA (( 'CONFIG_CONTROL_DESIGN' ));
ENDSEC;

DATA;
#1 = DIRECTION ( 'NONE',  ( -3.491481338843133355E-15, 1.224646799147353207E-16, -1.000000000000000000 ) ) ;
#2 = PERSON ( 'UNSPECIFIED', 'UNSPECIFIED', 'UNSPECIFIED', ('UNSPECIFIED'), ('UNSPECIFIED'), ('UNSPECIFIED') ) ;
#3 = CARTESIAN_POINT ( 'NONE',  ( 2.880472104545584703E-13, -1.010333609296566392E-14, 82.50000000000000000 ) ) ;
#4 = VERTEX_POINT ( 'NONE', #136 ) ;
#5 = ADVANCED_FACE ( 'NONE', ( #160 ), #9, .T. ) ;
#6 = LOCAL_TIME ( 8, 42, 4.000000000000000000, #27 ) ;
#7 = EDGE_LOOP ( 'NONE', ( #18 ) ) ;
#8 = APPLICATION_CONTEXT ( 'configuration controlled 3d designs of mechanical parts and assemblies' ) ;
#9 = PLANE ( 'NONE',  #157 ) ;
#10 = EDGE_LOOP ( 'NONE', ( #35 ) ) ;
#11 = PERSON_AND_ORGANIZATION ( #2, #83 ) ;
#12 = CYLINDRICAL_SURFACE ( 'NONE', #117, 7.999999999999994671 ) ;
#13 = PERSON_AND_ORGANIZATION ( #2, #83 ) ;
#14 = ADVANCED_FACE ( 'NONE', ( #146, #68 ), #51, .T. ) ;
#15 = AXIS2_PLACEMENT_3D ( 'NONE', #19, #107, #114 ) ;
#16 = DIRECTION ( 'NONE',  ( -3.491481338843133355E-15, 1.224646799147353207E-16, -1.000000000000000000 ) ) ;
#17 = CARTESIAN_POINT ( 'NONE',  ( 1.047444401652940007E-13, 7.999999999999996447, 30.00000000000000000 ) ) ;
#18 = ORIENTED_EDGE ( 'NONE', *, *, #170, .F. ) ;
#19 = CARTESIAN_POINT ( 'NONE',  ( 2.880472104545584703E-13, -1.010333609296566392E-14, 82.50000000000000000 ) ) ;
#20 = EDGE_CURVE ( 'NONE', #101, #101, #120, .T. ) ;
#21 = DIRECTION ( 'NONE',  ( -3.491481338843133355E-15, 1.224646799147353207E-16, -1.000000000000000000 ) ) ;
#22 = DIRECTION ( 'NONE',  ( 0.0000000000000000000, 1.000000000000000000, 0.0000000000000000000 ) ) ;
#23 = APPROVAL_DATE_TIME ( #131, #74 ) ;
#24 = DATE_TIME_ROLE ( 'creation_date' ) ;
#25 = AXIS2_PLACEMENT_3D ( 'NONE', #203, #37, #92 ) ;
#26 = ADVANCED_BREP_SHAPE_REPRESENTATION ( '334909', ( #180, #39, #156 ), #181 ) ;
#27 = COORDINATED_UNIVERSAL_TIME_OFFSET ( 1, 0, .AHEAD. ) ;
#28 = EDGE_LOOP ( 'NONE', ( #126 ) ) ;
#29 = APPLICATION_PROTOCOL_DEFINITION ( 'international standard', 'config_control_design', 1994, #149 ) ;
#30 = CARTESIAN_POINT ( 'NONE',  ( 1.047444401652940007E-13, 5.999039130647424958E-32, 30.00000000000000000 ) ) ;
#31 = EDGE_LOOP ( 'NONE', ( #106 ) ) ;
#32 = APPROVAL_PERSON_ORGANIZATION ( #59, #40, #138 ) ;
#33 = CC_DESIGN_PERSON_AND_ORGANIZATION_ASSIGNMENT ( #182, #64, ( #69 ) ) ;
#34 = COORDINATED_UNIVERSAL_TIME_OFFSET ( 1, 0, .AHEAD. ) ;
#35 = ORIENTED_EDGE ( 'NONE', *, *, #155, .T. ) ;
#36 = CALENDAR_DATE ( 2021, 15, 11 ) ;
#37 = DIRECTION ( 'NONE',  ( -3.491481338843133355E-15, 1.224646799147353207E-16, -1.000000000000000000 ) ) ;
#38 = AXIS2_PLACEMENT_3D ( 'NONE', #30, #143, #90 ) ;
#39 = MANIFOLD_SOLID_BREP ( 'Corps-Déplacer/Copier1[2]', #43 ) ;
#40 = APPROVAL ( #173, 'UNSPECIFIED' ) ;
#41 = VERTEX_POINT ( 'NONE', #192 ) ;
#42 = AXIS2_PLACEMENT_3D ( 'NONE', #121, #57, #88 ) ;
#43 = CLOSED_SHELL ( 'NONE', ( #5, #95, #60 ) ) ;
#44 = FACE_OUTER_BOUND ( 'NONE', #61, .T. ) ;
#45 = ADVANCED_FACE ( 'NONE', ( #128, #108 ), #12, .T. ) ;
#46 = CYLINDRICAL_SURFACE ( 'NONE', #165, 8.000000000000000000 ) ;
#47 = CARTESIAN_POINT ( 'NONE',  ( -1.710332578358783092E-30, 5.999039130647430431E-32, -4.898587196589412829E-16 ) ) ;
#48 = PERSON_AND_ORGANIZATION_ROLE ( 'creator' ) ;
#49 = EDGE_LOOP ( 'NONE', ( #179 ) ) ;
#50 = SECURITY_CLASSIFICATION_LEVEL ( 'unclassified' ) ;
#51 = CONICAL_SURFACE ( 'NONE', #15, 7.999999999999989342, 0.7853981633974482790 ) ;
#52 = PERSON_AND_ORGANIZATION ( #2, #83 ) ;
#53 = ADVANCED_FACE ( 'NONE', ( #98 ), #130, .F. ) ;
#54 = AXIS2_PLACEMENT_3D ( 'NONE', #191, #104, #85 ) ;
#55 = CC_DESIGN_PERSON_AND_ORGANIZATION_ASSIGNMENT ( #52, #202, ( #89 ) ) ;
#56 = CARTESIAN_POINT ( 'NONE',  ( 1.047444401652940007E-13, -3.673940397442059178E-15, 30.00000000000000000 ) ) ;
#57 = DIRECTION ( 'NONE',  ( -3.491481338843133355E-15, 1.224646799147353207E-16, -1.000000000000000000 ) ) ;
#58 = APPROVAL_DATE_TIME ( #137, #40 ) ;
#59 = PERSON_AND_ORGANIZATION ( #2, #83 ) ;
#60 = ADVANCED_FACE ( 'NONE', ( #44 ), #177, .T. ) ;
#61 = EDGE_LOOP ( 'NONE', ( #169 ) ) ;
#62 = FACE_OUTER_BOUND ( 'NONE', #158, .T. ) ;
#63 = FACE_OUTER_BOUND ( 'NONE', #184, .T. ) ;
#64 = PERSON_AND_ORGANIZATION_ROLE ( 'classification_officer' ) ;
#65 = DIRECTION ( 'NONE',  ( 4.275831445896958607E-31, 1.000000000000000000, 1.224646799147353207E-16 ) ) ;
#66 = APPROVAL_PERSON_ORGANIZATION ( #13, #119, #113 ) ;
#67 = APPROVAL_STATUS ( 'not_yet_approved' ) ;
#68 = FACE_OUTER_BOUND ( 'NONE', #28, .T. ) ;
#69 = SECURITY_CLASSIFICATION ( '', '', #50 ) ;
#70 = AXIS2_PLACEMENT_3D ( 'NONE', #162, #21, #22 ) ;
#71 = DIRECTION ( 'NONE',  ( 0.0000000000000000000, 1.000000000000000000, 0.0000000000000000000 ) ) ;
#72 = CARTESIAN_POINT ( 'NONE',  ( 1.047444401652940007E-13, 7.999999999999996447, 30.00000000000000000 ) ) ;
#73 = CIRCLE ( 'NONE', #135, 7.999999999999989342 ) ;
#74 = APPROVAL ( #129, 'UNSPECIFIED' ) ;
#75 =( LENGTH_UNIT ( ) NAMED_UNIT ( * ) SI_UNIT ( .MILLI., .METRE. ) );
#76 = ADVANCED_FACE ( 'NONE', ( #63 ), #141, .F. ) ;
#77 = DIRECTION ( 'NONE',  ( 3.491481338843133355E-15, -1.224646799147353207E-16, 1.000000000000000000 ) ) ;
#78 = LOCAL_TIME ( 8, 42, 4.000000000000000000, #34 ) ;
#79 = DIRECTION ( 'NONE',  ( -3.491481338843133355E-15, 1.224646799147353207E-16, -1.000000000000000000 ) ) ;
#80 = DIRECTION ( 'NONE',  ( -3.491481338843133355E-15, 1.224646799147353207E-16, -1.000000000000000000 ) ) ;
#81 = DIRECTION ( 'NONE',  ( 4.275831445896958607E-31, 1.000000000000000000, 1.224646799147353207E-16 ) ) ;
#82 = CALENDAR_DATE ( 2021, 15, 11 ) ;
#83 = ORGANIZATION ( 'UNSPECIFIED', 'UNSPECIFIED', '' ) ;
#84 = DIRECTION ( 'NONE',  ( 0.0000000000000000000, 0.0000000000000000000, 1.000000000000000000 ) ) ;
#85 = DIRECTION ( 'NONE',  ( 4.275831445896958607E-31, 1.000000000000000000, 1.224646799147353207E-16 ) ) ;
#86 = PRODUCT_RELATED_PRODUCT_CATEGORY ( 'detail', '', ( #163 ) ) ;
#87 = PERSON_AND_ORGANIZATION ( #2, #83 ) ;
#88 = DIRECTION ( 'NONE',  ( 0.0000000000000000000, 1.000000000000000000, 0.0000000000000000000 ) ) ;
#89 = PRODUCT_DEFINITION ( 'UNKNOWN', '', #140, #176 ) ;
#90 = DIRECTION ( 'NONE',  ( -4.275831445896958607E-31, -1.000000000000000000, -1.224646799147353207E-16 ) ) ;
#91 = PRODUCT_DEFINITION_SHAPE ( 'NONE', 'NONE',  #89 ) ;
#92 = DIRECTION ( 'NONE',  ( 4.275831445896958607E-31, 1.000000000000000000, 1.224646799147353207E-16 ) ) ;
#93 = EDGE_LOOP ( 'NONE', ( #196 ) ) ;
#94 = APPROVAL_DATE_TIME ( #97, #119 ) ;
#95 = ADVANCED_FACE ( 'NONE', ( #62, #198 ), #46, .T. ) ;
#96 = DIRECTION ( 'NONE',  ( -3.491481338843133355E-15, 1.224646799147353207E-16, -1.000000000000000000 ) ) ;
#97 = DATE_AND_TIME ( #82, #171 ) ;
#98 = FACE_OUTER_BOUND ( 'NONE', #31, .T. ) ;
#99 = COORDINATED_UNIVERSAL_TIME_OFFSET ( 1, 0, .AHEAD. ) ;
#100 = CLOSED_SHELL ( 'NONE', ( #76, #45, #14, #53 ) ) ;
#101 = VERTEX_POINT ( 'NONE', #72 ) ;
#102 = APPLICATION_PROTOCOL_DEFINITION ( 'international standard', 'config_control_design', 1994, #8 ) ;
#103 = CARTESIAN_POINT ( 'NONE',  ( 0.0000000000000000000, 0.0000000000000000000, 0.0000000000000000000 ) ) ;
#104 = DIRECTION ( 'NONE',  ( -3.491481338843133355E-15, 1.224646799147353207E-16, -1.000000000000000000 ) ) ;
#105 = APPROVAL_PERSON_ORGANIZATION ( #11, #74, #159 ) ;
#106 = ORIENTED_EDGE ( 'NONE', *, *, #155, .F. ) ;
#107 = DIRECTION ( 'NONE',  ( -3.491481338843133355E-15, 1.224646799147353207E-16, -1.000000000000000000 ) ) ;
#108 = FACE_OUTER_BOUND ( 'NONE', #49, .T. ) ;
#109 = CARTESIAN_POINT ( 'NONE',  ( 0.0000000000000000000, 0.0000000000000000000, 0.0000000000000000000 ) ) ;
#110 = CC_DESIGN_SECURITY_CLASSIFICATION ( #69, ( #140 ) ) ;
#111 = CALENDAR_DATE ( 2021, 15, 11 ) ;
#112 = ORIENTED_EDGE ( 'NONE', *, *, #142, .T. ) ;
#113 = APPROVAL_ROLE ( '' ) ;
#114 = DIRECTION ( 'NONE',  ( 0.0000000000000000000, 1.000000000000000000, 0.0000000000000000000 ) ) ;
#115 = DATE_TIME_ROLE ( 'classification_date' ) ;
#116 = CALENDAR_DATE ( 2021, 15, 11 ) ;
#117 = AXIS2_PLACEMENT_3D ( 'NONE', #201, #79, #186 ) ;
#118 = MECHANICAL_CONTEXT ( 'NONE', #149, 'mechanical' ) ;
#119 = APPROVAL ( #67, 'UNSPECIFIED' ) ;
#120 = CIRCLE ( 'NONE', #70, 8.000000000000000000 ) ;
#121 = CARTESIAN_POINT ( 'NONE',  ( 2.897929511239800306E-13, -1.016456843292302992E-14, 82.99999999999998579 ) ) ;
#122 = VERTEX_POINT ( 'NONE', #17 ) ;
#123 = DIRECTION ( 'NONE',  ( 0.0000000000000000000, 1.000000000000000000, 0.0000000000000000000 ) ) ;
#124 = CALENDAR_DATE ( 2021, 15, 11 ) ;
#125 = ORIENTED_EDGE ( 'NONE', *, *, #20, .T. ) ;
#126 = ORIENTED_EDGE ( 'NONE', *, *, #142, .F. ) ;
#127 = CC_DESIGN_DATE_AND_TIME_ASSIGNMENT ( #164, #115, ( #69 ) ) ;
#128 = FACE_OUTER_BOUND ( 'NONE', #197, .T. ) ;
#129 = APPROVAL_STATUS ( 'not_yet_approved' ) ;
#130 = PLANE ( 'NONE',  #25 ) ;
#131 = DATE_AND_TIME ( #111, #78 ) ;
#132 = PERSON_AND_ORGANIZATION_ROLE ( 'design_supplier' ) ;
#133 = LOCAL_TIME ( 8, 42, 4.000000000000000000, #200 ) ;
#134 = EDGE_CURVE ( 'NONE', #122, #122, #188, .T. ) ;
#135 = AXIS2_PLACEMENT_3D ( 'NONE', #3, #1, #71 ) ;
#136 = CARTESIAN_POINT ( 'NONE',  ( 6.842277657836020854E-46, 8.000000000000000000, 0.0000000000000000000 ) ) ;
#137 = DATE_AND_TIME ( #124, #6 ) ;
#138 = APPROVAL_ROLE ( '' ) ;
#139 = PERSON_AND_ORGANIZATION_ROLE ( 'design_owner' ) ;
#140 = PRODUCT_DEFINITION_FORMATION_WITH_SPECIFIED_SOURCE ( 'ANY', '', #163, .NOT_KNOWN. ) ;
#141 = PLANE ( 'NONE',  #150 ) ;
#142 = EDGE_CURVE ( 'NONE', #194, #194, #73, .T. ) ;
#143 = DIRECTION ( 'NONE',  ( 3.491481338843133355E-15, -1.224646799147353207E-16, 1.000000000000000000 ) ) ;
#144 = ORIENTED_EDGE ( 'NONE', *, *, #134, .T. ) ;
#145 = PERSON_AND_ORGANIZATION ( #2, #83 ) ;
#146 = FACE_BOUND ( 'NONE', #10, .T. ) ;
#147 = CC_DESIGN_APPROVAL ( #119, ( #140 ) ) ;
#148 = CC_DESIGN_APPROVAL ( #74, ( #69 ) ) ;
#149 = APPLICATION_CONTEXT ( 'configuration controlled 3d designs of mechanical parts and assemblies' ) ;
#150 = AXIS2_PLACEMENT_3D ( 'NONE', #154, #77, #183 ) ;
#151 = CC_DESIGN_APPROVAL ( #40, ( #89 ) ) ;
#152 = UNCERTAINTY_MEASURE_WITH_UNIT (LENGTH_MEASURE( 1.000000000000000082E-05 ), #75, 'distance_accuracy_value', 'NONE');
#153 = CARTESIAN_POINT ( 'NONE',  ( 2.880472104545584703E-13, 7.999999999999979572, 82.50000000000000000 ) ) ;
#154 = CARTESIAN_POINT ( 'NONE',  ( 1.047444401652940007E-13, 5.999039130647424958E-32, 30.00000000000000000 ) ) ;
#155 = EDGE_CURVE ( 'NONE', #41, #41, #199, .T. ) ;
#156 = AXIS2_PLACEMENT_3D ( 'NONE', #103, #84, #174 ) ;
#157 = AXIS2_PLACEMENT_3D ( 'NONE', #47, #96, #81 ) ;
#158 = EDGE_LOOP ( 'NONE', ( #125 ) ) ;
#159 = APPROVAL_ROLE ( '' ) ;
#160 = FACE_OUTER_BOUND ( 'NONE', #93, .T. ) ;
#161 = SHAPE_DEFINITION_REPRESENTATION ( #91, #26 ) ;
#162 = CARTESIAN_POINT ( 'NONE',  ( 1.047444401652940007E-13, -3.673940397442059178E-15, 30.00000000000000000 ) ) ;
#163 = PRODUCT ( '334909', '334909', '', ( #118 ) ) ;
#164 = DATE_AND_TIME ( #36, #175 ) ;
#165 = AXIS2_PLACEMENT_3D ( 'NONE', #109, #80, #65 ) ;
#166 = DATE_AND_TIME ( #116, #133 ) ;
#167 = CC_DESIGN_PERSON_AND_ORGANIZATION_ASSIGNMENT ( #185, #132, ( #140 ) ) ;
#168 = AXIS2_PLACEMENT_3D ( 'NONE', #56, #16, #123 ) ;
#169 = ORIENTED_EDGE ( 'NONE', *, *, #20, .F. ) ;
#170 = EDGE_CURVE ( 'NONE', #4, #4, #190, .T. ) ;
#171 = LOCAL_TIME ( 8, 42, 4.000000000000000000, #187 ) ;
#172 =( NAMED_UNIT ( * ) PLANE_ANGLE_UNIT ( ) SI_UNIT ( $, .RADIAN. ) );
#173 = APPROVAL_STATUS ( 'not_yet_approved' ) ;
#174 = DIRECTION ( 'NONE',  ( 1.000000000000000000, 0.0000000000000000000, 0.0000000000000000000 ) ) ;
#175 = LOCAL_TIME ( 8, 42, 4.000000000000000000, #99 ) ;
#176 = DESIGN_CONTEXT ( 'detailed design', #8, 'design' ) ;
#177 = PLANE ( 'NONE',  #38 ) ;
#178 = CC_DESIGN_PERSON_AND_ORGANIZATION_ASSIGNMENT ( #87, #139, ( #163 ) ) ;
#179 = ORIENTED_EDGE ( 'NONE', *, *, #134, .F. ) ;
#180 = MANIFOLD_SOLID_BREP ( 'Corps-Déplacer/Copier1[1]', #100 ) ;
#181 =( GEOMETRIC_REPRESENTATION_CONTEXT ( 3 ) GLOBAL_UNCERTAINTY_ASSIGNED_CONTEXT ( ( #152 ) ) GLOBAL_UNIT_ASSIGNED_CONTEXT ( ( #75, #172, #193 ) ) REPRESENTATION_CONTEXT ( 'NONE', 'WORKASPACE' ) );
#182 = PERSON_AND_ORGANIZATION ( #2, #83 ) ;
#183 = DIRECTION ( 'NONE',  ( -4.275831445896958607E-31, -1.000000000000000000, -1.224646799147353207E-16 ) ) ;
#184 = EDGE_LOOP ( 'NONE', ( #144 ) ) ;
#185 = PERSON_AND_ORGANIZATION ( #2, #83 ) ;
#186 = DIRECTION ( 'NONE',  ( 4.275831445896957731E-31, 1.000000000000000000, 1.224646799147353207E-16 ) ) ;
#187 = COORDINATED_UNIVERSAL_TIME_OFFSET ( 1, 0, .AHEAD. ) ;
#188 = CIRCLE ( 'NONE', #168, 8.000000000000000000 ) ;
#189 = CC_DESIGN_PERSON_AND_ORGANIZATION_ASSIGNMENT ( #145, #48, ( #140 ) ) ;
#190 = CIRCLE ( 'NONE', #54, 8.000000000000000000 ) ;
#191 = CARTESIAN_POINT ( 'NONE',  ( -3.420665156717566185E-30, 1.199807826129486086E-31, -9.797174393178825657E-16 ) ) ;
#192 = CARTESIAN_POINT ( 'NONE',  ( 2.897929511239800306E-13, 7.499999999999992895, 82.99999999999998579 ) ) ;
#193 =( NAMED_UNIT ( * ) SI_UNIT ( $, .STERADIAN. ) SOLID_ANGLE_UNIT ( ) );
#194 = VERTEX_POINT ( 'NONE', #153 ) ;
#195 = CC_DESIGN_DATE_AND_TIME_ASSIGNMENT ( #166, #24, ( #89 ) ) ;
#196 = ORIENTED_EDGE ( 'NONE', *, *, #170, .T. ) ;
#197 = EDGE_LOOP ( 'NONE', ( #112 ) ) ;
#198 = FACE_OUTER_BOUND ( 'NONE', #7, .T. ) ;
#199 = CIRCLE ( 'NONE', #42, 7.500000000000003553 ) ;
#200 = COORDINATED_UNIVERSAL_TIME_OFFSET ( 1, 0, .AHEAD. ) ;
#201 = CARTESIAN_POINT ( 'NONE',  ( 0.0000000000000000000, 0.0000000000000000000, 0.0000000000000000000 ) ) ;
#202 = PERSON_AND_ORGANIZATION_ROLE ( 'creator' ) ;
#203 = CARTESIAN_POINT ( 'NONE',  ( 2.897929511239800306E-13, 1.755779833658433324E-30, 82.99999999999998579 ) ) ;
ENDSEC;
END-ISO-10303-21;
