ISO-10303-21;
HEADER;
FILE_DESCRIPTION (( 'STEP AP203' ),
    '1' );
FILE_NAME ('334908.step',
    '2021-11-15T07:42:03',
    ( '' ),
    ( '' ),
    'SwSTEP 2.0',
    'SolidWorks 2019',
    '' );
FILE_SCHEMA (( 'CONFIG_CONTROL_DESIGN' ));
ENDSEC;

DATA;
#1 = COORDINATED_UNIVERSAL_TIME_OFFSET ( 1, 0, .AHEAD. ) ;
#2 = DIRECTION ( 'NONE',  ( 4.275831445896959482E-31, 1.000000000000000000, 1.224646799147353207E-16 ) ) ;
#3 = CC_DESIGN_DATE_AND_TIME_ASSIGNMENT ( #104, #167, ( #114 ) ) ;
#4 = CC_DESIGN_PERSON_AND_ORGANIZATION_ASSIGNMENT ( #36, #128, ( #194 ) ) ;
#5 =( LENGTH_UNIT ( ) NAMED_UNIT ( * ) SI_UNIT ( .MILLI., .METRE. ) );
#6 = APPLICATION_CONTEXT ( 'configuration controlled 3d designs of mechanical parts and assemblies' ) ;
#7 = FACE_OUTER_BOUND ( 'NONE', #77, .T. ) ;
#8 = VERTEX_POINT ( 'NONE', #170 ) ;
#9 = DIRECTION ( 'NONE',  ( 3.491481338843133355E-15, -1.224646799147353207E-16, 1.000000000000000000 ) ) ;
#10 = EDGE_CURVE ( 'NONE', #94, #94, #190, .T. ) ;
#11 = PLANE ( 'NONE',  #97 ) ;
#12 = PERSON_AND_ORGANIZATION ( #41, #144 ) ;
#13 = DIRECTION ( 'NONE',  ( 0.0000000000000000000, 1.000000000000000000, 0.0000000000000000000 ) ) ;
#14 = PERSON_AND_ORGANIZATION ( #41, #144 ) ;
#15 = PERSON_AND_ORGANIZATION ( #41, #144 ) ;
#16 = AXIS2_PLACEMENT_3D ( 'NONE', #139, #65, #23 ) ;
#17 = LOCAL_TIME ( 8, 42, 3.000000000000000000, #46 ) ;
#18 = AXIS2_PLACEMENT_3D ( 'NONE', #20, #38, #92 ) ;
#19 = CONICAL_SURFACE ( 'NONE', #54, 6.000000000000000000, 0.7853981633974621568 ) ;
#20 = CARTESIAN_POINT ( 'NONE',  ( 0.0000000000000000000, 0.0000000000000000000, 0.0000000000000000000 ) ) ;
#21 = DIRECTION ( 'NONE',  ( -3.491481338843133355E-15, 1.224646799147353207E-16, -1.000000000000000000 ) ) ;
#22 = PERSON_AND_ORGANIZATION ( #41, #144 ) ;
#23 = DIRECTION ( 'NONE',  ( 0.0000000000000000000, 1.000000000000000000, 0.0000000000000000000 ) ) ;
#24 = PERSON_AND_ORGANIZATION ( #41, #144 ) ;
#25 = FACE_OUTER_BOUND ( 'NONE', #165, .T. ) ;
#26 = CARTESIAN_POINT ( 'NONE',  ( 9.077851480992146724E-14, 5.999999999999996447, 26.00000000000000000 ) ) ;
#27 = CC_DESIGN_PERSON_AND_ORGANIZATION_ASSIGNMENT ( #12, #115, ( #177 ) ) ;
#28 = APPLICATION_CONTEXT ( 'configuration controlled 3d designs of mechanical parts and assemblies' ) ;
#29 = DATE_TIME_ROLE ( 'classification_date' ) ;
#30 = CC_DESIGN_APPROVAL ( #31, ( #136 ) ) ;
#31 = APPROVAL ( #90, 'UNSPECIFIED' ) ;
#32 = AXIS2_PLACEMENT_3D ( 'NONE', #130, #138, #43 ) ;
#33 = ORIENTED_EDGE ( 'NONE', *, *, #99, .T. ) ;
#34 = EDGE_LOOP ( 'NONE', ( #35 ) ) ;
#35 = ORIENTED_EDGE ( 'NONE', *, *, #98, .T. ) ;
#36 = PERSON_AND_ORGANIZATION ( #41, #144 ) ;
#37 = DIRECTION ( 'NONE',  ( -4.275831445896958607E-31, -1.000000000000000000, -1.224646799147353207E-16 ) ) ;
#38 = DIRECTION ( 'NONE',  ( 0.0000000000000000000, 0.0000000000000000000, 1.000000000000000000 ) ) ;
#39 = CC_DESIGN_PERSON_AND_ORGANIZATION_ASSIGNMENT ( #129, #95, ( #136 ) ) ;
#40 = APPROVAL_PERSON_ORGANIZATION ( #24, #168, #125 ) ;
#41 = PERSON ( 'UNSPECIFIED', 'UNSPECIFIED', 'UNSPECIFIED', ('UNSPECIFIED'), ('UNSPECIFIED'), ('UNSPECIFIED') ) ;
#42 = CLOSED_SHELL ( 'NONE', ( #72, #132, #86 ) ) ;
#43 = DIRECTION ( 'NONE',  ( 4.275831445896958607E-31, 1.000000000000000000, 1.224646799147353207E-16 ) ) ;
#44 = CALENDAR_DATE ( 2021, 15, 11 ) ;
#45 = FACE_OUTER_BOUND ( 'NONE', #173, .T. ) ;
#46 = COORDINATED_UNIVERSAL_TIME_OFFSET ( 1, 0, .AHEAD. ) ;
#47 = APPROVAL_STATUS ( 'not_yet_approved' ) ;
#48 = AXIS2_PLACEMENT_3D ( 'NONE', #80, #200, #171 ) ;
#49 = APPROVAL_DATE_TIME ( #71, #31 ) ;
#50 = AXIS2_PLACEMENT_3D ( 'NONE', #152, #166, #13 ) ;
#51 = ADVANCED_FACE ( 'NONE', ( #127, #91 ), #19, .T. ) ;
#52 = MANIFOLD_SOLID_BREP ( 'Corps-Déplacer/Copier1[1]', #178 ) ;
#53 = LOCAL_TIME ( 8, 42, 3.000000000000000000, #1 ) ;
#54 = AXIS2_PLACEMENT_3D ( 'NONE', #198, #183, #67 ) ;
#55 = DESIGN_CONTEXT ( 'detailed design', #6, 'design' ) ;
#56 = CC_DESIGN_DATE_AND_TIME_ASSIGNMENT ( #131, #29, ( #177 ) ) ;
#57 = LOCAL_TIME ( 8, 42, 3.000000000000000000, #108 ) ;
#58 = ORIENTED_EDGE ( 'NONE', *, *, #99, .F. ) ;
#59 = LOCAL_TIME ( 8, 42, 3.000000000000000000, #161 ) ;
#60 = EDGE_LOOP ( 'NONE', ( #103 ) ) ;
#61 = DIRECTION ( 'NONE',  ( 4.275831445896959482E-31, 1.000000000000000000, 1.224646799147353207E-16 ) ) ;
#62 = APPROVAL_STATUS ( 'not_yet_approved' ) ;
#63 = CC_DESIGN_PERSON_AND_ORGANIZATION_ASSIGNMENT ( #203, #192, ( #114 ) ) ;
#64 = DIRECTION ( 'NONE',  ( 0.0000000000000000000, 1.000000000000000000, 0.0000000000000000000 ) ) ;
#65 = DIRECTION ( 'NONE',  ( -3.491481338843133355E-15, 1.224646799147353207E-16, -1.000000000000000000 ) ) ;
#66 = CARTESIAN_POINT ( 'NONE',  ( 2.583696190743918430E-13, 4.124339402320105685E-32, 74.00000000000000000 ) ) ;
#67 = DIRECTION ( 'NONE',  ( 0.0000000000000000000, 1.000000000000000000, 0.0000000000000000000 ) ) ;
#68 = DIRECTION ( 'NONE',  ( 4.275831445896958607E-31, 1.000000000000000000, 1.224646799147353207E-16 ) ) ;
#69 = FACE_OUTER_BOUND ( 'NONE', #34, .T. ) ;
#70 = APPROVAL_DATE_TIME ( #109, #74 ) ;
#71 = DATE_AND_TIME ( #44, #59 ) ;
#72 = ADVANCED_FACE ( 'NONE', ( #25 ), #110, .T. ) ;
#73 = APPROVAL_PERSON_ORGANIZATION ( #22, #31, #151 ) ;
#74 = APPROVAL ( #47, 'UNSPECIFIED' ) ;
#75 = ORIENTED_EDGE ( 'NONE', *, *, #102, .T. ) ;
#76 = CC_DESIGN_PERSON_AND_ORGANIZATION_ASSIGNMENT ( #15, #160, ( #136 ) ) ;
#77 = EDGE_LOOP ( 'NONE', ( #121 ) ) ;
#78 = DIRECTION ( 'NONE',  ( -3.491481338843133355E-15, 1.224646799147353207E-16, -1.000000000000000000 ) ) ;
#79 = CARTESIAN_POINT ( 'NONE',  ( 9.077851480992146724E-14, 5.999999999999996447, 26.00000000000000000 ) ) ;
#80 = CARTESIAN_POINT ( 'NONE',  ( 9.077851480992146724E-14, -3.184081677783118191E-15, 26.00000000000000000 ) ) ;
#81 = APPLICATION_PROTOCOL_DEFINITION ( 'international standard', 'config_control_design', 1994, #28 ) ;
#82 = EDGE_LOOP ( 'NONE', ( #87 ) ) ;
#83 = CYLINDRICAL_SURFACE ( 'NONE', #159, 6.000000000000000000 ) ;
#84 = APPROVAL_ROLE ( '' ) ;
#85 = CYLINDRICAL_SURFACE ( 'NONE', #113, 6.000000000000000000 ) ;
#86 = ADVANCED_FACE ( 'NONE', ( #153 ), #191, .T. ) ;
#87 = ORIENTED_EDGE ( 'NONE', *, *, #102, .F. ) ;
#88 = MECHANICAL_CONTEXT ( 'NONE', #28, 'mechanical' ) ;
#89 = CARTESIAN_POINT ( 'NONE',  ( 0.0000000000000000000, 0.0000000000000000000, 0.0000000000000000000 ) ) ;
#90 = APPROVAL_STATUS ( 'not_yet_approved' ) ;
#91 = FACE_OUTER_BOUND ( 'NONE', #134, .T. ) ;
#92 = DIRECTION ( 'NONE',  ( 1.000000000000000000, 0.0000000000000000000, 0.0000000000000000000 ) ) ;
#93 = FACE_OUTER_BOUND ( 'NONE', #181, .T. ) ;
#94 = VERTEX_POINT ( 'NONE', #111 ) ;
#95 = PERSON_AND_ORGANIZATION_ROLE ( 'design_supplier' ) ;
#96 = DIRECTION ( 'NONE',  ( -3.491481338843133355E-15, 1.224646799147353207E-16, -1.000000000000000000 ) ) ;
#97 = AXIS2_PLACEMENT_3D ( 'NONE', #66, #189, #68 ) ;
#98 = EDGE_CURVE ( 'NONE', #158, #158, #147, .T. ) ;
#99 = EDGE_CURVE ( 'NONE', #8, #8, #133, .T. ) ;
#100 = ORIENTED_EDGE ( 'NONE', *, *, #98, .F. ) ;
#101 = AXIS2_PLACEMENT_3D ( 'NONE', #142, #21, #61 ) ;
#102 = EDGE_CURVE ( 'NONE', #174, #174, #155, .T. ) ;
#103 = ORIENTED_EDGE ( 'NONE', *, *, #195, .F. ) ;
#104 = DATE_AND_TIME ( #184, #17 ) ;
#105 = CARTESIAN_POINT ( 'NONE',  ( 9.077851480992146724E-14, -3.184081677783118191E-15, 26.00000000000000000 ) ) ;
#106 =( NAMED_UNIT ( * ) SI_UNIT ( $, .STERADIAN. ) SOLID_ANGLE_UNIT ( ) );
#107 = CARTESIAN_POINT ( 'NONE',  ( 9.077851480992146724E-14, 4.499279347985567350E-32, 26.00000000000000000 ) ) ;
#108 = COORDINATED_UNIVERSAL_TIME_OFFSET ( 1, 0, .AHEAD. ) ;
#109 = DATE_AND_TIME ( #175, #53 ) ;
#110 = PLANE ( 'NONE',  #32 ) ;
#111 = CARTESIAN_POINT ( 'NONE',  ( 0.0000000000000000000, 6.000000000000000000, 0.0000000000000000000 ) ) ;
#112 = CALENDAR_DATE ( 2021, 15, 11 ) ;
#113 = AXIS2_PLACEMENT_3D ( 'NONE', #89, #78, #2 ) ;
#114 = PRODUCT_DEFINITION ( 'UNKNOWN', '', #136, #55 ) ;
#115 = PERSON_AND_ORGANIZATION_ROLE ( 'classification_officer' ) ;
#116 = CIRCLE ( 'NONE', #48, 6.000000000000000000 ) ;
#117 = ADVANCED_BREP_SHAPE_REPRESENTATION ( '334908', ( #52, #118, #18 ), #141 ) ;
#118 = MANIFOLD_SOLID_BREP ( 'Corps-Déplacer/Copier1[2]', #42 ) ;
#119 = APPROVAL_PERSON_ORGANIZATION ( #14, #74, #84 ) ;
#120 = ORIENTED_EDGE ( 'NONE', *, *, #195, .T. ) ;
#121 = ORIENTED_EDGE ( 'NONE', *, *, #10, .F. ) ;
#122 = APPROVAL_DATE_TIME ( #140, #168 ) ;
#123 = FACE_OUTER_BOUND ( 'NONE', #199, .T. ) ;
#124 = CARTESIAN_POINT ( 'NONE',  ( 0.0000000000000000000, 0.0000000000000000000, 0.0000000000000000000 ) ) ;
#125 = APPROVAL_ROLE ( '' ) ;
#126 = CC_DESIGN_APPROVAL ( #74, ( #177 ) ) ;
#127 = FACE_BOUND ( 'NONE', #180, .T. ) ;
#128 = PERSON_AND_ORGANIZATION_ROLE ( 'design_owner' ) ;
#129 = PERSON_AND_ORGANIZATION ( #41, #144 ) ;
#130 = CARTESIAN_POINT ( 'NONE',  ( -1.282749433769087757E-30, 4.499279347985572824E-32, -3.673940397442059868E-16 ) ) ;
#131 = DATE_AND_TIME ( #112, #163 ) ;
#132 = ADVANCED_FACE ( 'NONE', ( #45, #7 ), #85, .T. ) ;
#133 = CIRCLE ( 'NONE', #50, 5.500000000000013323 ) ;
#134 = EDGE_LOOP ( 'NONE', ( #100 ) ) ;
#135 = DIRECTION ( 'NONE',  ( -3.491481338843133355E-15, 1.224646799147353207E-16, -1.000000000000000000 ) ) ;
#136 = PRODUCT_DEFINITION_FORMATION_WITH_SPECIFIED_SOURCE ( 'ANY', '', #194, .NOT_KNOWN. ) ;
#137 = DIRECTION ( 'NONE',  ( 4.275831445896959482E-31, 1.000000000000000000, 1.224646799147353207E-16 ) ) ;
#138 = DIRECTION ( 'NONE',  ( -3.491481338843133355E-15, 1.224646799147353207E-16, -1.000000000000000000 ) ) ;
#139 = CARTESIAN_POINT ( 'NONE',  ( 2.566238784049703837E-13, -9.001153973733049167E-15, 73.50000000000002842 ) ) ;
#140 = DATE_AND_TIME ( #172, #57 ) ;
#141 =( GEOMETRIC_REPRESENTATION_CONTEXT ( 3 ) GLOBAL_UNCERTAINTY_ASSIGNED_CONTEXT ( ( #162 ) ) GLOBAL_UNIT_ASSIGNED_CONTEXT ( ( #5, #154, #106 ) ) REPRESENTATION_CONTEXT ( 'NONE', 'WORKASPACE' ) );
#142 = CARTESIAN_POINT ( 'NONE',  ( -2.565498867538175514E-30, 8.998558695971145647E-32, -7.347880794884119736E-16 ) ) ;
#143 = SHAPE_DEFINITION_REPRESENTATION ( #146, #117 ) ;
#144 = ORGANIZATION ( 'UNSPECIFIED', 'UNSPECIFIED', '' ) ;
#145 = PRODUCT_RELATED_PRODUCT_CATEGORY ( 'detail', '', ( #194 ) ) ;
#146 = PRODUCT_DEFINITION_SHAPE ( 'NONE', 'NONE',  #114 ) ;
#147 = CIRCLE ( 'NONE', #16, 6.000000000000000000 ) ;
#148 = ADVANCED_FACE ( 'NONE', ( #69, #150 ), #83, .T. ) ;
#149 = CARTESIAN_POINT ( 'NONE',  ( 2.566238784049703837E-13, 5.999999999999991118, 73.50000000000002842 ) ) ;
#150 = FACE_OUTER_BOUND ( 'NONE', #60, .T. ) ;
#151 = APPROVAL_ROLE ( '' ) ;
#152 = CARTESIAN_POINT ( 'NONE',  ( 2.583696190743918430E-13, -9.062386313690413585E-15, 74.00000000000000000 ) ) ;
#153 = FACE_OUTER_BOUND ( 'NONE', #82, .T. ) ;
#154 =( NAMED_UNIT ( * ) PLANE_ANGLE_UNIT ( ) SI_UNIT ( $, .RADIAN. ) );
#155 = CIRCLE ( 'NONE', #197, 6.000000000000000000 ) ;
#156 = SECURITY_CLASSIFICATION_LEVEL ( 'unclassified' ) ;
#157 = CARTESIAN_POINT ( 'NONE',  ( 9.077851480992146724E-14, 4.499279347985567350E-32, 26.00000000000000000 ) ) ;
#158 = VERTEX_POINT ( 'NONE', #149 ) ;
#159 = AXIS2_PLACEMENT_3D ( 'NONE', #124, #135, #137 ) ;
#160 = PERSON_AND_ORGANIZATION_ROLE ( 'creator' ) ;
#161 = COORDINATED_UNIVERSAL_TIME_OFFSET ( 1, 0, .AHEAD. ) ;
#162 = UNCERTAINTY_MEASURE_WITH_UNIT (LENGTH_MEASURE( 1.000000000000000082E-05 ), #5, 'distance_accuracy_value', 'NONE');
#163 = LOCAL_TIME ( 8, 42, 3.000000000000000000, #193 ) ;
#164 = AXIS2_PLACEMENT_3D ( 'NONE', #157, #202, #37 ) ;
#165 = EDGE_LOOP ( 'NONE', ( #185 ) ) ;
#166 = DIRECTION ( 'NONE',  ( -3.491481338843133355E-15, 1.224646799147353207E-16, -1.000000000000000000 ) ) ;
#167 = DATE_TIME_ROLE ( 'creation_date' ) ;
#168 = APPROVAL ( #62, 'UNSPECIFIED' ) ;
#169 = PLANE ( 'NONE',  #179 ) ;
#170 = CARTESIAN_POINT ( 'NONE',  ( 2.583696190743918430E-13, 5.500000000000005329, 74.00000000000000000 ) ) ;
#171 = DIRECTION ( 'NONE',  ( 0.0000000000000000000, 1.000000000000000000, 0.0000000000000000000 ) ) ;
#172 = CALENDAR_DATE ( 2021, 15, 11 ) ;
#173 = EDGE_LOOP ( 'NONE', ( #75 ) ) ;
#174 = VERTEX_POINT ( 'NONE', #26 ) ;
#175 = CALENDAR_DATE ( 2021, 15, 11 ) ;
#176 = CC_DESIGN_SECURITY_CLASSIFICATION ( #177, ( #136 ) ) ;
#177 = SECURITY_CLASSIFICATION ( '', '', #156 ) ;
#178 = CLOSED_SHELL ( 'NONE', ( #182, #148, #51, #196 ) ) ;
#179 = AXIS2_PLACEMENT_3D ( 'NONE', #107, #9, #187 ) ;
#180 = EDGE_LOOP ( 'NONE', ( #33 ) ) ;
#181 = EDGE_LOOP ( 'NONE', ( #58 ) ) ;
#182 = ADVANCED_FACE ( 'NONE', ( #123 ), #169, .F. ) ;
#183 = DIRECTION ( 'NONE',  ( -3.491481338843133355E-15, 1.224646799147353207E-16, -1.000000000000000000 ) ) ;
#184 = CALENDAR_DATE ( 2021, 15, 11 ) ;
#185 = ORIENTED_EDGE ( 'NONE', *, *, #10, .T. ) ;
#186 = VERTEX_POINT ( 'NONE', #79 ) ;
#187 = DIRECTION ( 'NONE',  ( -4.275831445896958607E-31, -1.000000000000000000, -1.224646799147353207E-16 ) ) ;
#188 = CC_DESIGN_APPROVAL ( #168, ( #114 ) ) ;
#189 = DIRECTION ( 'NONE',  ( -3.491481338843133355E-15, 1.224646799147353207E-16, -1.000000000000000000 ) ) ;
#190 = CIRCLE ( 'NONE', #101, 6.000000000000000000 ) ;
#191 = PLANE ( 'NONE',  #164 ) ;
#192 = PERSON_AND_ORGANIZATION_ROLE ( 'creator' ) ;
#193 = COORDINATED_UNIVERSAL_TIME_OFFSET ( 1, 0, .AHEAD. ) ;
#194 = PRODUCT ( '334908', '334908', '', ( #88 ) ) ;
#195 = EDGE_CURVE ( 'NONE', #186, #186, #116, .T. ) ;
#196 = ADVANCED_FACE ( 'NONE', ( #93 ), #11, .F. ) ;
#197 = AXIS2_PLACEMENT_3D ( 'NONE', #105, #96, #64 ) ;
#198 = CARTESIAN_POINT ( 'NONE',  ( 2.566238784049703837E-13, -9.001153973733049167E-15, 73.50000000000002842 ) ) ;
#199 = EDGE_LOOP ( 'NONE', ( #120 ) ) ;
#200 = DIRECTION ( 'NONE',  ( -3.491481338843133355E-15, 1.224646799147353207E-16, -1.000000000000000000 ) ) ;
#201 = APPLICATION_PROTOCOL_DEFINITION ( 'international standard', 'config_control_design', 1994, #6 ) ;
#202 = DIRECTION ( 'NONE',  ( 3.491481338843133355E-15, -1.224646799147353207E-16, 1.000000000000000000 ) ) ;
#203 = PERSON_AND_ORGANIZATION ( #41, #144 ) ;
ENDSEC;
END-ISO-10303-21;
