ISO-10303-21;
HEADER;
FILE_DESCRIPTION (( 'STEP AP203' ),
    '1' );
FILE_NAME ('334907.step',
    '2021-11-15T07:42:03',
    ( '' ),
    ( '' ),
    'SwSTEP 2.0',
    'SolidWorks 2019',
    '' );
FILE_SCHEMA (( 'CONFIG_CONTROL_DESIGN' ));
ENDSEC;

DATA;
#1 =( GEOMETRIC_REPRESENTATION_CONTEXT ( 3 ) GLOBAL_UNCERTAINTY_ASSIGNED_CONTEXT ( ( #166 ) ) GLOBAL_UNIT_ASSIGNED_CONTEXT ( ( #7, #144, #130 ) ) REPRESENTATION_CONTEXT ( 'NONE', 'WORKASPACE' ) );
#2 = CARTESIAN_POINT ( 'NONE',  ( 7.681258945454893382E-14, 3.749399456654640188E-32, 22.00000000000000000 ) ) ;
#3 = CC_DESIGN_DATE_AND_TIME_ASSIGNMENT ( #52, #29, ( #8 ) ) ;
#4 = CARTESIAN_POINT ( 'NONE',  ( 2.321835090330683366E-13, 4.999999999999980460, 66.50000000000000000 ) ) ;
#5 = VERTEX_POINT ( 'NONE', #145 ) ;
#6 = SECURITY_CLASSIFICATION ( '', '', #101 ) ;
#7 =( LENGTH_UNIT ( ) NAMED_UNIT ( * ) SI_UNIT ( .MILLI., .METRE. ) );
#8 = PRODUCT_DEFINITION ( 'UNKNOWN', '', #11, #30 ) ;
#9 = COORDINATED_UNIVERSAL_TIME_OFFSET ( 1, 0, .AHEAD. ) ;
#10 = AXIS2_PLACEMENT_3D ( 'NONE', #96, #22, #191 ) ;
#11 = PRODUCT_DEFINITION_FORMATION_WITH_SPECIFIED_SOURCE ( 'ANY', '', #119, .NOT_KNOWN. ) ;
#12 = CALENDAR_DATE ( 2021, 15, 11 ) ;
#13 = APPLICATION_PROTOCOL_DEFINITION ( 'international standard', 'config_control_design', 1994, #55 ) ;
#14 = APPROVAL_STATUS ( 'not_yet_approved' ) ;
#15 = AXIS2_PLACEMENT_3D ( 'NONE', #163, #197, #77 ) ;
#16 = EDGE_LOOP ( 'NONE', ( #170 ) ) ;
#17 = DIRECTION ( 'NONE',  ( -3.491481338843133355E-15, 1.224646799147353207E-16, -1.000000000000000000 ) ) ;
#18 = ADVANCED_FACE ( 'NONE', ( #203, #153 ), #64, .T. ) ;
#19 = FACE_OUTER_BOUND ( 'NONE', #78, .T. ) ;
#20 = CARTESIAN_POINT ( 'NONE',  ( 7.681258945454893382E-14, -2.694222958124176809E-15, 22.00000000000000000 ) ) ;
#21 = DIRECTION ( 'NONE',  ( -3.491481338843133355E-15, 1.224646799147353207E-16, -1.000000000000000000 ) ) ;
#22 = DIRECTION ( 'NONE',  ( -3.491481338843133355E-15, 1.224646799147353207E-16, -1.000000000000000000 ) ) ;
#23 = ADVANCED_FACE ( 'NONE', ( #187 ), #108, .T. ) ;
#24 = CC_DESIGN_APPROVAL ( #87, ( #11 ) ) ;
#25 = APPROVAL_STATUS ( 'not_yet_approved' ) ;
#26 = CALENDAR_DATE ( 2021, 15, 11 ) ;
#27 = AXIS2_PLACEMENT_3D ( 'NONE', #66, #21, #47 ) ;
#28 = PERSON_AND_ORGANIZATION ( #132, #117 ) ;
#29 = DATE_TIME_ROLE ( 'creation_date' ) ;
#30 = DESIGN_CONTEXT ( 'detailed design', #55, 'design' ) ;
#31 = ORIENTED_EDGE ( 'NONE', *, *, #115, .F. ) ;
#32 = CARTESIAN_POINT ( 'NONE',  ( 7.681258945454893382E-14, 3.749399456654640188E-32, 22.00000000000000000 ) ) ;
#33 = DIRECTION ( 'NONE',  ( -3.491481338843133355E-15, 1.224646799147353207E-16, -1.000000000000000000 ) ) ;
#34 = PLANE ( 'NONE',  #169 ) ;
#35 = FACE_OUTER_BOUND ( 'NONE', #190, .T. ) ;
#36 = PLANE ( 'NONE',  #131 ) ;
#37 = DIRECTION ( 'NONE',  ( -3.491481338843133355E-15, 1.224646799147353207E-16, -1.000000000000000000 ) ) ;
#38 = PERSON_AND_ORGANIZATION ( #132, #117 ) ;
#39 = PERSON_AND_ORGANIZATION_ROLE ( 'creator' ) ;
#40 = DATE_AND_TIME ( #12, #63 ) ;
#41 = APPROVAL_DATE_TIME ( #56, #79 ) ;
#42 = CC_DESIGN_PERSON_AND_ORGANIZATION_ASSIGNMENT ( #177, #198, ( #11 ) ) ;
#43 = EDGE_LOOP ( 'NONE', ( #140 ) ) ;
#44 = ORIENTED_EDGE ( 'NONE', *, *, #156, .T. ) ;
#45 = CC_DESIGN_APPROVAL ( #133, ( #8 ) ) ;
#46 = FACE_OUTER_BOUND ( 'NONE', #43, .T. ) ;
#47 = DIRECTION ( 'NONE',  ( 0.0000000000000000000, 1.000000000000000000, 0.0000000000000000000 ) ) ;
#48 = CC_DESIGN_PERSON_AND_ORGANIZATION_ASSIGNMENT ( #137, #89, ( #8 ) ) ;
#49 = AXIS2_PLACEMENT_3D ( 'NONE', #172, #33, #194 ) ;
#50 = FACE_OUTER_BOUND ( 'NONE', #105, .T. ) ;
#51 = DIRECTION ( 'NONE',  ( -3.491481338843133355E-15, 1.224646799147353207E-16, -1.000000000000000000 ) ) ;
#52 = DATE_AND_TIME ( #75, #97 ) ;
#53 = PERSON_AND_ORGANIZATION_ROLE ( 'classification_officer' ) ;
#54 = CALENDAR_DATE ( 2021, 15, 11 ) ;
#55 = APPLICATION_CONTEXT ( 'configuration controlled 3d designs of mechanical parts and assemblies' ) ;
#56 = DATE_AND_TIME ( #102, #123 ) ;
#57 = AXIS2_PLACEMENT_3D ( 'NONE', #114, #37, #99 ) ;
#58 = DATE_TIME_ROLE ( 'classification_date' ) ;
#59 = ORIENTED_EDGE ( 'NONE', *, *, #202, .F. ) ;
#60 = MANIFOLD_SOLID_BREP ( 'Corps-Déplacer/Copier1[2]', #125 ) ;
#61 = CIRCLE ( 'NONE', #158, 5.000000000000000000 ) ;
#62 = EDGE_LOOP ( 'NONE', ( #104 ) ) ;
#63 = LOCAL_TIME ( 8, 42, 3.000000000000000000, #118 ) ;
#64 = CYLINDRICAL_SURFACE ( 'NONE', #193, 5.000000000000000000 ) ;
#65 = AXIS2_PLACEMENT_3D ( 'NONE', #82, #109, #129 ) ;
#66 = CARTESIAN_POINT ( 'NONE',  ( 2.339292497024898969E-13, -8.205133554287265970E-15, 66.99999999999998579 ) ) ;
#67 = DIRECTION ( 'NONE',  ( 4.275831445896958607E-31, 1.000000000000000000, 1.224646799147353207E-16 ) ) ;
#68 = CLOSED_SHELL ( 'NONE', ( #85, #80, #84, #188 ) ) ;
#69 = DIRECTION ( 'NONE',  ( -3.491481338843133355E-15, 1.224646799147353207E-16, -1.000000000000000000 ) ) ;
#70 = DIRECTION ( 'NONE',  ( 4.275831445896958607E-31, 1.000000000000000000, 1.224646799147353207E-16 ) ) ;
#71 = APPROVAL_ROLE ( '' ) ;
#72 = LOCAL_TIME ( 8, 42, 3.000000000000000000, #121 ) ;
#73 = LOCAL_TIME ( 8, 42, 3.000000000000000000, #116 ) ;
#74 = APPROVAL_ROLE ( '' ) ;
#75 = CALENDAR_DATE ( 2021, 15, 11 ) ;
#76 = AXIS2_PLACEMENT_3D ( 'NONE', #32, #93, #155 ) ;
#77 = DIRECTION ( 'NONE',  ( 1.000000000000000000, 0.0000000000000000000, 0.0000000000000000000 ) ) ;
#78 = EDGE_LOOP ( 'NONE', ( #81 ) ) ;
#79 = APPROVAL ( #124, 'UNSPECIFIED' ) ;
#80 = ADVANCED_FACE ( 'NONE', ( #46, #143 ), #113, .T. ) ;
#81 = ORIENTED_EDGE ( 'NONE', *, *, #178, .F. ) ;
#82 = CARTESIAN_POINT ( 'NONE',  ( 2.321835090330683366E-13, -8.143901214329899974E-15, 66.50000000000000000 ) ) ;
#83 = VERTEX_POINT ( 'NONE', #4 ) ;
#84 = ADVANCED_FACE ( 'NONE', ( #111, #50 ), #184, .T. ) ;
#85 = ADVANCED_FACE ( 'NONE', ( #157 ), #174, .F. ) ;
#86 = CARTESIAN_POINT ( 'NONE',  ( 7.681258945454893382E-14, 4.999999999999997335, 22.00000000000000000 ) ) ;
#87 = APPROVAL ( #14, 'UNSPECIFIED' ) ;
#88 = DIRECTION ( 'NONE',  ( -4.275831445896958607E-31, -1.000000000000000000, -1.224646799147353207E-16 ) ) ;
#89 = PERSON_AND_ORGANIZATION_ROLE ( 'creator' ) ;
#90 = APPROVAL_DATE_TIME ( #180, #87 ) ;
#91 = CC_DESIGN_DATE_AND_TIME_ASSIGNMENT ( #40, #58, ( #6 ) ) ;
#92 = AXIS2_PLACEMENT_3D ( 'NONE', #146, #51, #128 ) ;
#93 = DIRECTION ( 'NONE',  ( 3.491481338843133355E-15, -1.224646799147353207E-16, 1.000000000000000000 ) ) ;
#94 = VERTEX_POINT ( 'NONE', #159 ) ;
#95 = PRODUCT_DEFINITION_SHAPE ( 'NONE', 'NONE',  #8 ) ;
#96 = CARTESIAN_POINT ( 'NONE',  ( -2.137915722948479128E-30, 7.498798913309288039E-32, -6.123233995736766282E-16 ) ) ;
#97 = LOCAL_TIME ( 8, 42, 3.000000000000000000, #9 ) ;
#98 = CARTESIAN_POINT ( 'NONE',  ( 7.681258945454893382E-14, 4.999999999999997335, 22.00000000000000000 ) ) ;
#99 = DIRECTION ( 'NONE',  ( 0.0000000000000000000, 1.000000000000000000, 0.0000000000000000000 ) ) ;
#100 = VERTEX_POINT ( 'NONE', #98 ) ;
#101 = SECURITY_CLASSIFICATION_LEVEL ( 'unclassified' ) ;
#102 = CALENDAR_DATE ( 2021, 15, 11 ) ;
#103 = AXIS2_PLACEMENT_3D ( 'NONE', #2, #192, #88 ) ;
#104 = ORIENTED_EDGE ( 'NONE', *, *, #178, .T. ) ;
#105 = EDGE_LOOP ( 'NONE', ( #59 ) ) ;
#106 = CARTESIAN_POINT ( 'NONE',  ( 0.0000000000000000000, 0.0000000000000000000, 0.0000000000000000000 ) ) ;
#107 = EDGE_CURVE ( 'NONE', #100, #100, #61, .T. ) ;
#108 = PLANE ( 'NONE',  #76 ) ;
#109 = DIRECTION ( 'NONE',  ( -3.491481338843133355E-15, 1.224646799147353207E-16, -1.000000000000000000 ) ) ;
#110 = CARTESIAN_POINT ( 'NONE',  ( -1.068957861474239564E-30, 3.749399456654644020E-32, -3.061616997868383141E-16 ) ) ;
#111 = FACE_BOUND ( 'NONE', #62, .T. ) ;
#112 = CIRCLE ( 'NONE', #57, 5.000000000000000000 ) ;
#113 = CYLINDRICAL_SURFACE ( 'NONE', #92, 4.999999999999993783 ) ;
#114 = CARTESIAN_POINT ( 'NONE',  ( 7.681258945454893382E-14, -2.694222958124176809E-15, 22.00000000000000000 ) ) ;
#115 = EDGE_CURVE ( 'NONE', #134, #134, #112, .T. ) ;
#116 = COORDINATED_UNIVERSAL_TIME_OFFSET ( 1, 0, .AHEAD. ) ;
#117 = ORGANIZATION ( 'UNSPECIFIED', 'UNSPECIFIED', '' ) ;
#118 = COORDINATED_UNIVERSAL_TIME_OFFSET ( 1, 0, .AHEAD. ) ;
#119 = PRODUCT ( '334907', '334907', '', ( #122 ) ) ;
#120 = CC_DESIGN_PERSON_AND_ORGANIZATION_ASSIGNMENT ( #38, #39, ( #11 ) ) ;
#121 = COORDINATED_UNIVERSAL_TIME_OFFSET ( 1, 0, .AHEAD. ) ;
#122 = MECHANICAL_CONTEXT ( 'NONE', #138, 'mechanical' ) ;
#123 = LOCAL_TIME ( 8, 42, 3.000000000000000000, #182 ) ;
#124 = APPROVAL_STATUS ( 'not_yet_approved' ) ;
#125 = CLOSED_SHELL ( 'NONE', ( #151, #18, #23 ) ) ;
#126 = DIRECTION ( 'NONE',  ( 4.275831445896958607E-31, 1.000000000000000000, 1.224646799147353207E-16 ) ) ;
#127 = APPROVAL_PERSON_ORGANIZATION ( #181, #133, #152 ) ;
#128 = DIRECTION ( 'NONE',  ( 4.275831445896959482E-31, 1.000000000000000000, 1.224646799147353207E-16 ) ) ;
#129 = DIRECTION ( 'NONE',  ( 0.0000000000000000000, 1.000000000000000000, 0.0000000000000000000 ) ) ;
#130 =( NAMED_UNIT ( * ) SI_UNIT ( $, .STERADIAN. ) SOLID_ANGLE_UNIT ( ) );
#131 = AXIS2_PLACEMENT_3D ( 'NONE', #161, #69, #67 ) ;
#132 = PERSON ( 'UNSPECIFIED', 'UNSPECIFIED', 'UNSPECIFIED', ('UNSPECIFIED'), ('UNSPECIFIED'), ('UNSPECIFIED') ) ;
#133 = APPROVAL ( #25, 'UNSPECIFIED' ) ;
#134 = VERTEX_POINT ( 'NONE', #86 ) ;
#135 = CIRCLE ( 'NONE', #10, 5.000000000000000000 ) ;
#136 = PERSON_AND_ORGANIZATION ( #132, #117 ) ;
#137 = PERSON_AND_ORGANIZATION ( #132, #117 ) ;
#138 = APPLICATION_CONTEXT ( 'configuration controlled 3d designs of mechanical parts and assemblies' ) ;
#139 = CC_DESIGN_PERSON_AND_ORGANIZATION_ASSIGNMENT ( #28, #150, ( #119 ) ) ;
#140 = ORIENTED_EDGE ( 'NONE', *, *, #202, .T. ) ;
#141 = DIRECTION ( 'NONE',  ( -3.491481338843133355E-15, 1.224646799147353207E-16, -1.000000000000000000 ) ) ;
#142 = APPROVAL_PERSON_ORGANIZATION ( #179, #79, #74 ) ;
#143 = FACE_OUTER_BOUND ( 'NONE', #185, .T. ) ;
#144 =( NAMED_UNIT ( * ) PLANE_ANGLE_UNIT ( ) SI_UNIT ( $, .RADIAN. ) );
#145 = CARTESIAN_POINT ( 'NONE',  ( 2.339292497024898969E-13, 4.499999999999990230, 66.99999999999998579 ) ) ;
#146 = CARTESIAN_POINT ( 'NONE',  ( 0.0000000000000000000, 0.0000000000000000000, 0.0000000000000000000 ) ) ;
#147 = APPLICATION_PROTOCOL_DEFINITION ( 'international standard', 'config_control_design', 1994, #138 ) ;
#148 = SHAPE_DEFINITION_REPRESENTATION ( #95, #175 ) ;
#149 = CC_DESIGN_APPROVAL ( #79, ( #6 ) ) ;
#150 = PERSON_AND_ORGANIZATION_ROLE ( 'design_owner' ) ;
#151 = ADVANCED_FACE ( 'NONE', ( #35 ), #34, .T. ) ;
#152 = APPROVAL_ROLE ( '' ) ;
#153 = FACE_OUTER_BOUND ( 'NONE', #201, .T. ) ;
#154 = ORIENTED_EDGE ( 'NONE', *, *, #107, .F. ) ;
#155 = DIRECTION ( 'NONE',  ( -4.275831445896958607E-31, -1.000000000000000000, -1.224646799147353207E-16 ) ) ;
#156 = EDGE_CURVE ( 'NONE', #94, #94, #135, .T. ) ;
#157 = FACE_OUTER_BOUND ( 'NONE', #16, .T. ) ;
#158 = AXIS2_PLACEMENT_3D ( 'NONE', #20, #171, #173 ) ;
#159 = CARTESIAN_POINT ( 'NONE',  ( 0.0000000000000000000, 5.000000000000000000, 0.0000000000000000000 ) ) ;
#160 = APPROVAL_PERSON_ORGANIZATION ( #136, #87, #71 ) ;
#161 = CARTESIAN_POINT ( 'NONE',  ( 2.339292497024899474E-13, 3.374459510989166480E-32, 67.00000000000000000 ) ) ;
#162 = PERSON_AND_ORGANIZATION ( #132, #117 ) ;
#163 = CARTESIAN_POINT ( 'NONE',  ( 0.0000000000000000000, 0.0000000000000000000, 0.0000000000000000000 ) ) ;
#164 = CC_DESIGN_SECURITY_CLASSIFICATION ( #6, ( #11 ) ) ;
#165 = DATE_AND_TIME ( #26, #72 ) ;
#166 = UNCERTAINTY_MEASURE_WITH_UNIT (LENGTH_MEASURE( 1.000000000000000082E-05 ), #7, 'distance_accuracy_value', 'NONE');
#167 = EDGE_LOOP ( 'NONE', ( #154 ) ) ;
#168 = ORIENTED_EDGE ( 'NONE', *, *, #107, .T. ) ;
#169 = AXIS2_PLACEMENT_3D ( 'NONE', #110, #141, #70 ) ;
#170 = ORIENTED_EDGE ( 'NONE', *, *, #115, .T. ) ;
#171 = DIRECTION ( 'NONE',  ( -3.491481338843133355E-15, 1.224646799147353207E-16, -1.000000000000000000 ) ) ;
#172 = CARTESIAN_POINT ( 'NONE',  ( 2.321835090330683366E-13, -8.143901214329899974E-15, 66.50000000000000000 ) ) ;
#173 = DIRECTION ( 'NONE',  ( 0.0000000000000000000, 1.000000000000000000, 0.0000000000000000000 ) ) ;
#174 = PLANE ( 'NONE',  #103 ) ;
#175 = ADVANCED_BREP_SHAPE_REPRESENTATION ( '334907', ( #195, #60, #15 ), #1 ) ;
#176 = PRODUCT_RELATED_PRODUCT_CATEGORY ( 'detail', '', ( #119 ) ) ;
#177 = PERSON_AND_ORGANIZATION ( #132, #117 ) ;
#178 = EDGE_CURVE ( 'NONE', #5, #5, #199, .T. ) ;
#179 = PERSON_AND_ORGANIZATION ( #132, #117 ) ;
#180 = DATE_AND_TIME ( #54, #73 ) ;
#181 = PERSON_AND_ORGANIZATION ( #132, #117 ) ;
#182 = COORDINATED_UNIVERSAL_TIME_OFFSET ( 1, 0, .AHEAD. ) ;
#183 = ORIENTED_EDGE ( 'NONE', *, *, #156, .F. ) ;
#184 = CONICAL_SURFACE ( 'NONE', #65, 4.999999999999987566, 0.7853981633974518317 ) ;
#185 = EDGE_LOOP ( 'NONE', ( #31 ) ) ;
#186 = CC_DESIGN_PERSON_AND_ORGANIZATION_ASSIGNMENT ( #162, #53, ( #6 ) ) ;
#187 = FACE_OUTER_BOUND ( 'NONE', #167, .T. ) ;
#188 = ADVANCED_FACE ( 'NONE', ( #19 ), #36, .F. ) ;
#189 = CIRCLE ( 'NONE', #49, 4.999999999999987566 ) ;
#190 = EDGE_LOOP ( 'NONE', ( #44 ) ) ;
#191 = DIRECTION ( 'NONE',  ( 4.275831445896958607E-31, 1.000000000000000000, 1.224646799147353207E-16 ) ) ;
#192 = DIRECTION ( 'NONE',  ( 3.491481338843133355E-15, -1.224646799147353207E-16, 1.000000000000000000 ) ) ;
#193 = AXIS2_PLACEMENT_3D ( 'NONE', #106, #17, #126 ) ;
#194 = DIRECTION ( 'NONE',  ( 0.0000000000000000000, 1.000000000000000000, 0.0000000000000000000 ) ) ;
#195 = MANIFOLD_SOLID_BREP ( 'Corps-Déplacer/Copier1[1]', #68 ) ;
#196 = APPROVAL_DATE_TIME ( #165, #133 ) ;
#197 = DIRECTION ( 'NONE',  ( 0.0000000000000000000, 0.0000000000000000000, 1.000000000000000000 ) ) ;
#198 = PERSON_AND_ORGANIZATION_ROLE ( 'design_supplier' ) ;
#199 = CIRCLE ( 'NONE', #27, 4.499999999999998224 ) ;
#200 = EDGE_LOOP ( 'NONE', ( #168 ) ) ;
#201 = EDGE_LOOP ( 'NONE', ( #183 ) ) ;
#202 = EDGE_CURVE ( 'NONE', #83, #83, #189, .T. ) ;
#203 = FACE_OUTER_BOUND ( 'NONE', #200, .T. ) ;
ENDSEC;
END-ISO-10303-21;
