ISO-10303-21;
HEADER;
FILE_DESCRIPTION (( 'STEP AP203' ),
    '1' );
FILE_NAME ('334906.step',
    '2021-11-15T07:42:02',
    ( '' ),
    ( '' ),
    'SwSTEP 2.0',
    'SolidWorks 2019',
    '' );
FILE_SCHEMA (( 'CONFIG_CONTROL_DESIGN' ));
ENDSEC;

DATA;
#1 = CYLINDRICAL_SURFACE ( 'NONE', #179, 4.000000000000000888 ) ;
#2 = ADVANCED_FACE ( 'NONE', ( #151 ), #75, .F. ) ;
#3 = FACE_OUTER_BOUND ( 'NONE', #118, .T. ) ;
#4 = APPROVAL ( #181, 'UNSPECIFIED' ) ;
#5 = DIRECTION ( 'NONE',  ( 4.275831445896958607E-31, 1.000000000000000000, 1.224646799147353207E-16 ) ) ;
#6 = PERSON_AND_ORGANIZATION ( #25, #138 ) ;
#7 = CIRCLE ( 'NONE', #134, 4.000000000000000888 ) ;
#8 = CALENDAR_DATE ( 2021, 15, 11 ) ;
#9 = CALENDAR_DATE ( 2021, 15, 11 ) ;
#10 = PERSON_AND_ORGANIZATION_ROLE ( 'creator' ) ;
#11 = DATE_TIME_ROLE ( 'creation_date' ) ;
#12 = ADVANCED_FACE ( 'NONE', ( #43 ), #26, .T. ) ;
#13 = CARTESIAN_POINT ( 'NONE',  ( 2.217090650165389744E-13, 3.999999999999993339, 63.50000000000000000 ) ) ;
#14 =( NAMED_UNIT ( * ) SI_UNIT ( $, .STERADIAN. ) SOLID_ANGLE_UNIT ( ) );
#15 = FACE_OUTER_BOUND ( 'NONE', #139, .T. ) ;
#16 = CYLINDRICAL_SURFACE ( 'NONE', #194, 4.000000000000000000 ) ;
#17 = CC_DESIGN_PERSON_AND_ORGANIZATION_ASSIGNMENT ( #161, #102, ( #172 ) ) ;
#18 = DIRECTION ( 'NONE',  ( 4.275831445896958607E-31, 1.000000000000000000, 1.224646799147353207E-16 ) ) ;
#19 = CALENDAR_DATE ( 2021, 15, 11 ) ;
#20 = APPROVAL_DATE_TIME ( #39, #51 ) ;
#21 = PERSON_AND_ORGANIZATION ( #25, #138 ) ;
#22 = PRODUCT_DEFINITION ( 'UNKNOWN', '', #154, #136 ) ;
#23 = ORIENTED_EDGE ( 'NONE', *, *, #30, .T. ) ;
#24 = PERSON_AND_ORGANIZATION ( #25, #138 ) ;
#25 = PERSON ( 'UNSPECIFIED', 'UNSPECIFIED', 'UNSPECIFIED', ('UNSPECIFIED'), ('UNSPECIFIED'), ('UNSPECIFIED') ) ;
#26 = PLANE ( 'NONE',  #185 ) ;
#27 = APPLICATION_CONTEXT ( 'configuration controlled 3d designs of mechanical parts and assemblies' ) ;
#28 = DIRECTION ( 'NONE',  ( -4.275831445896958607E-31, -1.000000000000000000, -1.224646799147353207E-16 ) ) ;
#29 = ORIENTED_EDGE ( 'NONE', *, *, #56, .T. ) ;
#30 = EDGE_CURVE ( 'NONE', #88, #88, #94, .T. ) ;
#31 =( NAMED_UNIT ( * ) PLANE_ANGLE_UNIT ( ) SI_UNIT ( $, .RADIAN. ) );
#32 = PLANE ( 'NONE',  #82 ) ;
#33 = CARTESIAN_POINT ( 'NONE',  ( 2.217090650165389744E-13, -7.776507174585692952E-15, 63.50000000000000000 ) ) ;
#34 = FACE_BOUND ( 'NONE', #74, .T. ) ;
#35 = AXIS2_PLACEMENT_3D ( 'NONE', #86, #156, #114 ) ;
#36 = CARTESIAN_POINT ( 'NONE',  ( 2.217090650165389744E-13, -7.776507174585692952E-15, 63.50000000000000000 ) ) ;
#37 = DIRECTION ( 'NONE',  ( 1.000000000000000000, 0.0000000000000000000, 0.0000000000000000000 ) ) ;
#38 = APPROVAL_ROLE ( '' ) ;
#39 = DATE_AND_TIME ( #72, #189 ) ;
#40 = APPLICATION_CONTEXT ( 'configuration controlled 3d designs of mechanical parts and assemblies' ) ;
#41 = EDGE_LOOP ( 'NONE', ( #122 ) ) ;
#42 = APPROVAL_ROLE ( '' ) ;
#43 = FACE_OUTER_BOUND ( 'NONE', #41, .T. ) ;
#44 = EDGE_LOOP ( 'NONE', ( #105 ) ) ;
#45 = DIRECTION ( 'NONE',  ( 4.275831445896958607E-31, 1.000000000000000000, 1.224646799147353207E-16 ) ) ;
#46 = PRODUCT ( '334906', '334906', '', ( #73 ) ) ;
#47 = LOCAL_TIME ( 8, 42, 2.000000000000000000, #195 ) ;
#48 = DIRECTION ( 'NONE',  ( -3.491481338843133355E-15, 1.224646799147353207E-16, -1.000000000000000000 ) ) ;
#49 = PLANE ( 'NONE',  #110 ) ;
#50 = VERTEX_POINT ( 'NONE', #99 ) ;
#51 = APPROVAL ( #183, 'UNSPECIFIED' ) ;
#52 = AXIS2_PLACEMENT_3D ( 'NONE', #159, #155, #45 ) ;
#53 = COORDINATED_UNIVERSAL_TIME_OFFSET ( 1, 0, .AHEAD. ) ;
#54 = APPROVAL_DATE_TIME ( #59, #184 ) ;
#55 = MANIFOLD_SOLID_BREP ( 'Corps-Déplacer/Copier1[1]', #198 ) ;
#56 = EDGE_CURVE ( 'NONE', #146, #146, #141, .T. ) ;
#57 = EDGE_LOOP ( 'NONE', ( #133 ) ) ;
#58 =( GEOMETRIC_REPRESENTATION_CONTEXT ( 3 ) GLOBAL_UNCERTAINTY_ASSIGNED_CONTEXT ( ( #78 ) ) GLOBAL_UNIT_ASSIGNED_CONTEXT ( ( #95, #31, #14 ) ) REPRESENTATION_CONTEXT ( 'NONE', 'WORKASPACE' ) );
#59 = DATE_AND_TIME ( #19, #47 ) ;
#60 = MANIFOLD_SOLID_BREP ( 'Corps-Déplacer/Copier1[2]', #168 ) ;
#61 = DATE_TIME_ROLE ( 'classification_date' ) ;
#62 = AXIS2_PLACEMENT_3D ( 'NONE', #193, #126, #174 ) ;
#63 = DIRECTION ( 'NONE',  ( 3.491481338843133355E-15, -1.224646799147353207E-16, 1.000000000000000000 ) ) ;
#64 = ADVANCED_FACE ( 'NONE', ( #15, #97 ), #16, .T. ) ;
#65 = PRODUCT_DEFINITION_SHAPE ( 'NONE', 'NONE',  #22 ) ;
#66 = AXIS2_PLACEMENT_3D ( 'NONE', #135, #63, #123 ) ;
#67 = DIRECTION ( 'NONE',  ( 4.275831445896958607E-31, 1.000000000000000000, 1.224646799147353207E-16 ) ) ;
#68 = DIRECTION ( 'NONE',  ( 0.0000000000000000000, 1.000000000000000000, 0.0000000000000000000 ) ) ;
#69 = APPROVAL_PERSON_ORGANIZATION ( #152, #51, #163 ) ;
#70 = CARTESIAN_POINT ( 'NONE',  ( 6.284666409917640040E-14, 3.999999999999998224, 18.00000000000000000 ) ) ;
#71 = DIRECTION ( 'NONE',  ( -3.491481338843133355E-15, 1.224646799147353207E-16, -1.000000000000000000 ) ) ;
#72 = CALENDAR_DATE ( 2021, 15, 11 ) ;
#73 = MECHANICAL_CONTEXT ( 'NONE', #27, 'mechanical' ) ;
#74 = EDGE_LOOP ( 'NONE', ( #93 ) ) ;
#75 = PLANE ( 'NONE',  #66 ) ;
#76 = LOCAL_TIME ( 8, 42, 2.000000000000000000, #167 ) ;
#77 = PERSON_AND_ORGANIZATION_ROLE ( 'design_supplier' ) ;
#78 = UNCERTAINTY_MEASURE_WITH_UNIT (LENGTH_MEASURE( 1.000000000000000082E-05 ), #95, 'distance_accuracy_value', 'NONE');
#79 = CC_DESIGN_APPROVAL ( #184, ( #22 ) ) ;
#80 = ORIENTED_EDGE ( 'NONE', *, *, #153, .T. ) ;
#81 = EDGE_LOOP ( 'NONE', ( #173 ) ) ;
#82 = AXIS2_PLACEMENT_3D ( 'NONE', #188, #71, #67 ) ;
#83 = CARTESIAN_POINT ( 'NONE',  ( 6.284666409917640040E-14, -2.204364238465235428E-15, 18.00000000000000000 ) ) ;
#84 = CC_DESIGN_PERSON_AND_ORGANIZATION_ASSIGNMENT ( #132, #116, ( #46 ) ) ;
#85 = CARTESIAN_POINT ( 'NONE',  ( 0.0000000000000000000, 0.0000000000000000000, 0.0000000000000000000 ) ) ;
#86 = CARTESIAN_POINT ( 'NONE',  ( 6.284666409917640040E-14, -2.204364238465235428E-15, 18.00000000000000000 ) ) ;
#87 = CC_DESIGN_PERSON_AND_ORGANIZATION_ASSIGNMENT ( #24, #10, ( #154 ) ) ;
#88 = VERTEX_POINT ( 'NONE', #70 ) ;
#89 = FACE_OUTER_BOUND ( 'NONE', #57, .T. ) ;
#90 = DIRECTION ( 'NONE',  ( 0.0000000000000000000, 0.0000000000000000000, 1.000000000000000000 ) ) ;
#91 = APPLICATION_PROTOCOL_DEFINITION ( 'international standard', 'config_control_design', 1994, #40 ) ;
#92 = DATE_AND_TIME ( #148, #145 ) ;
#93 = ORIENTED_EDGE ( 'NONE', *, *, #200, .T. ) ;
#94 = CIRCLE ( 'NONE', #35, 4.000000000000000888 ) ;
#95 =( LENGTH_UNIT ( ) NAMED_UNIT ( * ) SI_UNIT ( .MILLI., .METRE. ) );
#96 = DIRECTION ( 'NONE',  ( -3.491481338843133355E-15, 1.224646799147353207E-16, -1.000000000000000000 ) ) ;
#97 = FACE_OUTER_BOUND ( 'NONE', #166, .T. ) ;
#98 = LOCAL_TIME ( 8, 42, 2.000000000000000000, #201 ) ;
#99 = CARTESIAN_POINT ( 'NONE',  ( 6.284666409917640040E-14, 3.999999999999998224, 18.00000000000000000 ) ) ;
#100 = PERSON_AND_ORGANIZATION ( #25, #138 ) ;
#101 = SHAPE_DEFINITION_REPRESENTATION ( #65, #109 ) ;
#102 = PERSON_AND_ORGANIZATION_ROLE ( 'classification_officer' ) ;
#103 = EDGE_LOOP ( 'NONE', ( #29 ) ) ;
#104 = APPLICATION_PROTOCOL_DEFINITION ( 'international standard', 'config_control_design', 1994, #27 ) ;
#105 = ORIENTED_EDGE ( 'NONE', *, *, #200, .F. ) ;
#106 = CC_DESIGN_PERSON_AND_ORGANIZATION_ASSIGNMENT ( #150, #77, ( #154 ) ) ;
#107 = CONICAL_SURFACE ( 'NONE', #162, 4.000000000000000888, 0.7853981633974482790 ) ;
#108 = FACE_OUTER_BOUND ( 'NONE', #103, .T. ) ;
#109 = ADVANCED_BREP_SHAPE_REPRESENTATION ( '334906', ( #55, #60, #117 ), #58 ) ;
#110 = AXIS2_PLACEMENT_3D ( 'NONE', #143, #157, #113 ) ;
#111 = CARTESIAN_POINT ( 'NONE',  ( 3.421138828918010427E-46, 4.000000000000000000, 0.0000000000000000000 ) ) ;
#112 = FACE_OUTER_BOUND ( 'NONE', #81, .T. ) ;
#113 = DIRECTION ( 'NONE',  ( 4.275831445896958607E-31, 1.000000000000000000, 1.224646799147353207E-16 ) ) ;
#114 = DIRECTION ( 'NONE',  ( 0.0000000000000000000, 1.000000000000000000, 0.0000000000000000000 ) ) ;
#115 = ADVANCED_FACE ( 'NONE', ( #34, #89 ), #107, .T. ) ;
#116 = PERSON_AND_ORGANIZATION_ROLE ( 'design_owner' ) ;
#117 = AXIS2_PLACEMENT_3D ( 'NONE', #120, #90, #37 ) ;
#118 = EDGE_LOOP ( 'NONE', ( #197 ) ) ;
#119 = DATE_AND_TIME ( #9, #76 ) ;
#120 = CARTESIAN_POINT ( 'NONE',  ( 0.0000000000000000000, 0.0000000000000000000, 0.0000000000000000000 ) ) ;
#121 = CIRCLE ( 'NONE', #149, 4.000000000000000888 ) ;
#122 = ORIENTED_EDGE ( 'NONE', *, *, #153, .F. ) ;
#123 = DIRECTION ( 'NONE',  ( -4.275831445896958607E-31, -1.000000000000000000, -1.224646799147353207E-16 ) ) ;
#124 = CC_DESIGN_DATE_AND_TIME_ASSIGNMENT ( #119, #11, ( #22 ) ) ;
#125 = CIRCLE ( 'NONE', #62, 3.500000000000000444 ) ;
#126 = DIRECTION ( 'NONE',  ( -3.491481338843133355E-15, 1.224646799147353207E-16, -1.000000000000000000 ) ) ;
#127 = PRODUCT_RELATED_PRODUCT_CATEGORY ( 'detail', '', ( #46 ) ) ;
#128 = ADVANCED_FACE ( 'NONE', ( #112, #3 ), #1, .T. ) ;
#129 = DIRECTION ( 'NONE',  ( -3.491481338843133355E-15, 1.224646799147353207E-16, -1.000000000000000000 ) ) ;
#130 = APPROVAL_DATE_TIME ( #92, #4 ) ;
#131 = APPROVAL_PERSON_ORGANIZATION ( #21, #4, #38 ) ;
#132 = PERSON_AND_ORGANIZATION ( #25, #138 ) ;
#133 = ORIENTED_EDGE ( 'NONE', *, *, #175, .F. ) ;
#134 = AXIS2_PLACEMENT_3D ( 'NONE', #83, #48, #68 ) ;
#135 = CARTESIAN_POINT ( 'NONE',  ( 6.284666409917640040E-14, 2.999519565323712479E-32, 18.00000000000000000 ) ) ;
#136 = DESIGN_CONTEXT ( 'detailed design', #40, 'design' ) ;
#137 = SECURITY_CLASSIFICATION_LEVEL ( 'unclassified' ) ;
#138 = ORGANIZATION ( 'UNSPECIFIED', 'UNSPECIFIED', '' ) ;
#139 = EDGE_LOOP ( 'NONE', ( #80 ) ) ;
#140 = ADVANCED_FACE ( 'NONE', ( #187 ), #32, .F. ) ;
#141 = CIRCLE ( 'NONE', #52, 4.000000000000000000 ) ;
#142 = CARTESIAN_POINT ( 'NONE',  ( 2.234548056859605347E-13, 3.499999999999992895, 64.00000000000000000 ) ) ;
#143 = CARTESIAN_POINT ( 'NONE',  ( -8.551662891793915461E-31, 2.999519565323715216E-32, -2.449293598294706414E-16 ) ) ;
#144 = CC_DESIGN_APPROVAL ( #51, ( #154 ) ) ;
#145 = LOCAL_TIME ( 8, 42, 2.000000000000000000, #160 ) ;
#146 = VERTEX_POINT ( 'NONE', #111 ) ;
#147 = DIRECTION ( 'NONE',  ( 0.0000000000000000000, 1.000000000000000000, 0.0000000000000000000 ) ) ;
#148 = CALENDAR_DATE ( 2021, 15, 11 ) ;
#149 = AXIS2_PLACEMENT_3D ( 'NONE', #33, #180, #178 ) ;
#150 = PERSON_AND_ORGANIZATION ( #25, #138 ) ;
#151 = FACE_OUTER_BOUND ( 'NONE', #182, .T. ) ;
#152 = PERSON_AND_ORGANIZATION ( #25, #138 ) ;
#153 = EDGE_CURVE ( 'NONE', #50, #50, #7, .T. ) ;
#154 = PRODUCT_DEFINITION_FORMATION_WITH_SPECIFIED_SOURCE ( 'ANY', '', #46, .NOT_KNOWN. ) ;
#155 = DIRECTION ( 'NONE',  ( -3.491481338843133355E-15, 1.224646799147353207E-16, -1.000000000000000000 ) ) ;
#156 = DIRECTION ( 'NONE',  ( -3.491481338843133355E-15, 1.224646799147353207E-16, -1.000000000000000000 ) ) ;
#157 = DIRECTION ( 'NONE',  ( -3.491481338843133355E-15, 1.224646799147353207E-16, -1.000000000000000000 ) ) ;
#158 = APPROVAL_PERSON_ORGANIZATION ( #100, #184, #42 ) ;
#159 = CARTESIAN_POINT ( 'NONE',  ( -1.710332578358783092E-30, 5.999039130647430431E-32, -4.898587196589412829E-16 ) ) ;
#160 = COORDINATED_UNIVERSAL_TIME_OFFSET ( 1, 0, .AHEAD. ) ;
#161 = PERSON_AND_ORGANIZATION ( #25, #138 ) ;
#162 = AXIS2_PLACEMENT_3D ( 'NONE', #36, #129, #147 ) ;
#163 = APPROVAL_ROLE ( '' ) ;
#164 = CC_DESIGN_APPROVAL ( #4, ( #172 ) ) ;
#165 = PERSON_AND_ORGANIZATION_ROLE ( 'creator' ) ;
#166 = EDGE_LOOP ( 'NONE', ( #170 ) ) ;
#167 = COORDINATED_UNIVERSAL_TIME_OFFSET ( 1, 0, .AHEAD. ) ;
#168 = CLOSED_SHELL ( 'NONE', ( #169, #64, #12 ) ) ;
#169 = ADVANCED_FACE ( 'NONE', ( #108 ), #49, .T. ) ;
#170 = ORIENTED_EDGE ( 'NONE', *, *, #56, .F. ) ;
#171 = DIRECTION ( 'NONE',  ( 3.491481338843133355E-15, -1.224646799147353207E-16, 1.000000000000000000 ) ) ;
#172 = SECURITY_CLASSIFICATION ( '', '', #137 ) ;
#173 = ORIENTED_EDGE ( 'NONE', *, *, #175, .T. ) ;
#174 = DIRECTION ( 'NONE',  ( 0.0000000000000000000, 1.000000000000000000, 0.0000000000000000000 ) ) ;
#175 = EDGE_CURVE ( 'NONE', #190, #190, #121, .T. ) ;
#176 = VERTEX_POINT ( 'NONE', #142 ) ;
#177 = DIRECTION ( 'NONE',  ( -3.491481338843133355E-15, 1.224646799147353207E-16, -1.000000000000000000 ) ) ;
#178 = DIRECTION ( 'NONE',  ( 0.0000000000000000000, 1.000000000000000000, 0.0000000000000000000 ) ) ;
#179 = AXIS2_PLACEMENT_3D ( 'NONE', #85, #96, #5 ) ;
#180 = DIRECTION ( 'NONE',  ( -3.491481338843133355E-15, 1.224646799147353207E-16, -1.000000000000000000 ) ) ;
#181 = APPROVAL_STATUS ( 'not_yet_approved' ) ;
#182 = EDGE_LOOP ( 'NONE', ( #23 ) ) ;
#183 = APPROVAL_STATUS ( 'not_yet_approved' ) ;
#184 = APPROVAL ( #196, 'UNSPECIFIED' ) ;
#185 = AXIS2_PLACEMENT_3D ( 'NONE', #202, #171, #28 ) ;
#186 = CC_DESIGN_SECURITY_CLASSIFICATION ( #172, ( #154 ) ) ;
#187 = FACE_OUTER_BOUND ( 'NONE', #44, .T. ) ;
#188 = CARTESIAN_POINT ( 'NONE',  ( 2.234548056859605347E-13, 2.624579619658239319E-32, 64.00000000000000000 ) ) ;
#189 = LOCAL_TIME ( 8, 42, 2.000000000000000000, #53 ) ;
#190 = VERTEX_POINT ( 'NONE', #13 ) ;
#191 = CC_DESIGN_PERSON_AND_ORGANIZATION_ASSIGNMENT ( #6, #165, ( #22 ) ) ;
#192 = CARTESIAN_POINT ( 'NONE',  ( 0.0000000000000000000, 0.0000000000000000000, 0.0000000000000000000 ) ) ;
#193 = CARTESIAN_POINT ( 'NONE',  ( 2.234548056859605347E-13, -7.837739514543060526E-15, 64.00000000000000000 ) ) ;
#194 = AXIS2_PLACEMENT_3D ( 'NONE', #192, #177, #18 ) ;
#195 = COORDINATED_UNIVERSAL_TIME_OFFSET ( 1, 0, .AHEAD. ) ;
#196 = APPROVAL_STATUS ( 'not_yet_approved' ) ;
#197 = ORIENTED_EDGE ( 'NONE', *, *, #30, .F. ) ;
#198 = CLOSED_SHELL ( 'NONE', ( #2, #128, #115, #140 ) ) ;
#199 = DATE_AND_TIME ( #8, #98 ) ;
#200 = EDGE_CURVE ( 'NONE', #176, #176, #125, .T. ) ;
#201 = COORDINATED_UNIVERSAL_TIME_OFFSET ( 1, 0, .AHEAD. ) ;
#202 = CARTESIAN_POINT ( 'NONE',  ( 6.284666409917640040E-14, 2.999519565323712479E-32, 18.00000000000000000 ) ) ;
#203 = CC_DESIGN_DATE_AND_TIME_ASSIGNMENT ( #199, #61, ( #172 ) ) ;
ENDSEC;
END-ISO-10303-21;
