ISO-10303-21;
HEADER;
FILE_DESCRIPTION (( 'STEP AP203' ),
    '1' );
FILE_NAME ('334905.step',
    '2021-11-15T07:42:02',
    ( '' ),
    ( '' ),
    'SwSTEP 2.0',
    'SolidWorks 2019',
    '' );
FILE_SCHEMA (( 'CONFIG_CONTROL_DESIGN' ));
ENDSEC;

DATA;
#1 = EDGE_LOOP ( 'NONE', ( #3 ) ) ;
#2 = DIRECTION ( 'NONE',  ( 0.0000000000000000000, 1.000000000000000000, 0.0000000000000000000 ) ) ;
#3 = ORIENTED_EDGE ( 'NONE', *, *, #152, .T. ) ;
#4 = APPROVAL_PERSON_ORGANIZATION ( #24, #125, #174 ) ;
#5 = CARTESIAN_POINT ( 'NONE',  ( 1.902857329669507616E-13, -6.674325055353075041E-15, 54.50000000000000000 ) ) ;
#6 = DIRECTION ( 'NONE',  ( 0.0000000000000000000, 1.000000000000000000, 0.0000000000000000000 ) ) ;
#7 = PLANE ( 'NONE',  #96 ) ;
#8 = ADVANCED_BREP_SHAPE_REPRESENTATION ( '334905', ( #90, #23, #202 ), #36 ) ;
#9 = APPROVAL ( #51, 'UNSPECIFIED' ) ;
#10 = APPROVAL_STATUS ( 'not_yet_approved' ) ;
#11 = COORDINATED_UNIVERSAL_TIME_OFFSET ( 1, 0, .AHEAD. ) ;
#12 = CALENDAR_DATE ( 2021, 15, 11 ) ;
#13 = DIRECTION ( 'NONE',  ( -3.491481338843133355E-15, 1.224646799147353207E-16, -1.000000000000000000 ) ) ;
#14 = DIRECTION ( 'NONE',  ( 0.0000000000000000000, 1.000000000000000000, 0.0000000000000000000 ) ) ;
#15 = COORDINATED_UNIVERSAL_TIME_OFFSET ( 1, 0, .AHEAD. ) ;
#16 = LOCAL_TIME ( 8, 42, 2.000000000000000000, #11 ) ;
#17 = CARTESIAN_POINT ( 'NONE',  ( 0.0000000000000000000, 0.0000000000000000000, 0.0000000000000000000 ) ) ;
#18 = EDGE_CURVE ( 'NONE', #199, #199, #34, .T. ) ;
#19 = AXIS2_PLACEMENT_3D ( 'NONE', #165, #124, #31 ) ;
#20 = CYLINDRICAL_SURFACE ( 'NONE', #19, 3.000000000000000000 ) ;
#21 = DIRECTION ( 'NONE',  ( 4.275831445896958607E-31, 1.000000000000000000, 1.224646799147353207E-16 ) ) ;
#22 = DIRECTION ( 'NONE',  ( -3.491481338843133355E-15, 1.224646799147353207E-16, -1.000000000000000000 ) ) ;
#23 = MANIFOLD_SOLID_BREP ( 'Corps-Déplacer/Copier1[2]', #78 ) ;
#24 = PERSON_AND_ORGANIZATION ( #162, #70 ) ;
#25 = DIRECTION ( 'NONE',  ( 0.0000000000000000000, 0.0000000000000000000, 1.000000000000000000 ) ) ;
#26 = APPROVAL_DATE_TIME ( #65, #9 ) ;
#27 = PERSON_AND_ORGANIZATION_ROLE ( 'classification_officer' ) ;
#28 = DIRECTION ( 'NONE',  ( -3.491481338843133355E-15, 1.224646799147353207E-16, -1.000000000000000000 ) ) ;
#29 = APPLICATION_CONTEXT ( 'configuration controlled 3d designs of mechanical parts and assemblies' ) ;
#30 = CARTESIAN_POINT ( 'NONE',  ( -1.282749433769087757E-30, 4.499279347985572824E-32, -3.673940397442059868E-16 ) ) ;
#31 = DIRECTION ( 'NONE',  ( 4.275831445896959482E-31, 1.000000000000000000, 1.224646799147353207E-16 ) ) ;
#32 = APPROVAL ( #86, 'UNSPECIFIED' ) ;
#33 = ORIENTED_EDGE ( 'NONE', *, *, #117, .T. ) ;
#34 = CIRCLE ( 'NONE', #116, 3.000000000000000000 ) ;
#35 = ADVANCED_FACE ( 'NONE', ( #107 ), #200, .T. ) ;
#36 =( GEOMETRIC_REPRESENTATION_CONTEXT ( 3 ) GLOBAL_UNCERTAINTY_ASSIGNED_CONTEXT ( ( #179 ) ) GLOBAL_UNIT_ASSIGNED_CONTEXT ( ( #197, #83, #143 ) ) REPRESENTATION_CONTEXT ( 'NONE', 'WORKASPACE' ) );
#37 = VERTEX_POINT ( 'NONE', #55 ) ;
#38 = ADVANCED_FACE ( 'NONE', ( #43, #111 ), #175, .T. ) ;
#39 = PERSON_AND_ORGANIZATION_ROLE ( 'creator' ) ;
#40 = DESIGN_CONTEXT ( 'detailed design', #29, 'design' ) ;
#41 = COORDINATED_UNIVERSAL_TIME_OFFSET ( 1, 0, .AHEAD. ) ;
#42 = EDGE_LOOP ( 'NONE', ( #150 ) ) ;
#43 = FACE_OUTER_BOUND ( 'NONE', #56, .T. ) ;
#44 = CC_DESIGN_DATE_AND_TIME_ASSIGNMENT ( #101, #105, ( #64 ) ) ;
#45 = EDGE_LOOP ( 'NONE', ( #33 ) ) ;
#46 = CLOSED_SHELL ( 'NONE', ( #135, #38, #144, #154 ) ) ;
#47 = CARTESIAN_POINT ( 'NONE',  ( 1.902857329669507616E-13, 2.999999999999995559, 54.50000000000000000 ) ) ;
#48 = AXIS2_PLACEMENT_3D ( 'NONE', #5, #58, #173 ) ;
#49 = DATE_AND_TIME ( #137, #77 ) ;
#50 = CIRCLE ( 'NONE', #54, 3.000000000000000000 ) ;
#51 = APPROVAL_STATUS ( 'not_yet_approved' ) ;
#52 = PERSON_AND_ORGANIZATION ( #162, #70 ) ;
#53 = CC_DESIGN_PERSON_AND_ORGANIZATION_ASSIGNMENT ( #141, #27, ( #64 ) ) ;
#54 = AXIS2_PLACEMENT_3D ( 'NONE', #198, #114, #2 ) ;
#55 = CARTESIAN_POINT ( 'NONE',  ( 1.920314736363723724E-13, 2.499999999999992006, 55.00000000000000711 ) ) ;
#56 = EDGE_LOOP ( 'NONE', ( #73 ) ) ;
#57 = FACE_OUTER_BOUND ( 'NONE', #123, .T. ) ;
#58 = DIRECTION ( 'NONE',  ( -3.491481338843133355E-15, 1.224646799147353207E-16, -1.000000000000000000 ) ) ;
#59 = FACE_OUTER_BOUND ( 'NONE', #185, .T. ) ;
#60 = DIRECTION ( 'NONE',  ( 4.275831445896958607E-31, 1.000000000000000000, 1.224646799147353207E-16 ) ) ;
#61 = DIRECTION ( 'NONE',  ( -4.275831445896958607E-31, -1.000000000000000000, -1.224646799147353207E-16 ) ) ;
#62 = AXIS2_PLACEMENT_3D ( 'NONE', #17, #147, #60 ) ;
#63 = CARTESIAN_POINT ( 'NONE',  ( 4.538925740496073362E-14, 2.999999999999998224, 13.00000000000000000 ) ) ;
#64 = SECURITY_CLASSIFICATION ( '', '', #172 ) ;
#65 = DATE_AND_TIME ( #169, #80 ) ;
#66 = ADVANCED_FACE ( 'NONE', ( #122 ), #131, .T. ) ;
#67 = CARTESIAN_POINT ( 'NONE',  ( 4.538925740496073362E-14, -1.592040838891559095E-15, 13.00000000000000000 ) ) ;
#68 = DATE_TIME_ROLE ( 'creation_date' ) ;
#69 = DIRECTION ( 'NONE',  ( 4.275831445896959482E-31, 1.000000000000000000, 1.224646799147353207E-16 ) ) ;
#70 = ORGANIZATION ( 'UNSPECIFIED', 'UNSPECIFIED', '' ) ;
#71 = PRODUCT_DEFINITION_SHAPE ( 'NONE', 'NONE',  #92 ) ;
#72 = SHAPE_DEFINITION_REPRESENTATION ( #71, #8 ) ;
#73 = ORIENTED_EDGE ( 'NONE', *, *, #79, .T. ) ;
#74 = CC_DESIGN_PERSON_AND_ORGANIZATION_ASSIGNMENT ( #52, #160, ( #134 ) ) ;
#75 = PLANE ( 'NONE',  #178 ) ;
#76 = DIRECTION ( 'NONE',  ( 3.491481338843133355E-15, -1.224646799147353207E-16, 1.000000000000000000 ) ) ;
#77 = LOCAL_TIME ( 8, 42, 2.000000000000000000, #15 ) ;
#78 = CLOSED_SHELL ( 'NONE', ( #66, #187, #35 ) ) ;
#79 = EDGE_CURVE ( 'NONE', #95, #95, #94, .T. ) ;
#80 = LOCAL_TIME ( 8, 42, 2.000000000000000000, #120 ) ;
#81 = CARTESIAN_POINT ( 'NONE',  ( 0.0000000000000000000, 0.0000000000000000000, 0.0000000000000000000 ) ) ;
#82 = PERSON_AND_ORGANIZATION_ROLE ( 'design_owner' ) ;
#83 =( NAMED_UNIT ( * ) PLANE_ANGLE_UNIT ( ) SI_UNIT ( $, .RADIAN. ) );
#84 = COORDINATED_UNIVERSAL_TIME_OFFSET ( 1, 0, .AHEAD. ) ;
#85 = ORIENTED_EDGE ( 'NONE', *, *, #152, .F. ) ;
#86 = APPROVAL_STATUS ( 'not_yet_approved' ) ;
#87 = FACE_OUTER_BOUND ( 'NONE', #1, .T. ) ;
#88 = CARTESIAN_POINT ( 'NONE',  ( 4.538925740496073362E-14, 2.249639673992783675E-32, 13.00000000000000000 ) ) ;
#89 = VERTEX_POINT ( 'NONE', #126 ) ;
#90 = MANIFOLD_SOLID_BREP ( 'Corps-Déplacer/Copier1[1]', #46 ) ;
#91 = ORIENTED_EDGE ( 'NONE', *, *, #158, .T. ) ;
#92 = PRODUCT_DEFINITION ( 'UNKNOWN', '', #134, #40 ) ;
#93 = APPROVAL_DATE_TIME ( #49, #125 ) ;
#94 = CIRCLE ( 'NONE', #168, 3.000000000000002220 ) ;
#95 = VERTEX_POINT ( 'NONE', #47 ) ;
#96 = AXIS2_PLACEMENT_3D ( 'NONE', #133, #76, #61 ) ;
#97 = VERTEX_POINT ( 'NONE', #177 ) ;
#98 = CARTESIAN_POINT ( 'NONE',  ( 1.920314736363723724E-13, -8.310224236210339646E-31, 55.00000000000000711 ) ) ;
#99 = CC_DESIGN_APPROVAL ( #32, ( #92 ) ) ;
#100 = PERSON_AND_ORGANIZATION ( #162, #70 ) ;
#101 = DATE_AND_TIME ( #155, #195 ) ;
#102 = CIRCLE ( 'NONE', #149, 3.000000000000000000 ) ;
#103 = APPROVAL_ROLE ( '' ) ;
#104 = CARTESIAN_POINT ( 'NONE',  ( -6.413747168845438786E-31, 2.249639673992786412E-32, -1.836970198721029934E-16 ) ) ;
#105 = DATE_TIME_ROLE ( 'classification_date' ) ;
#106 = CARTESIAN_POINT ( 'NONE',  ( 1.902857329669507616E-13, -6.674325055353075041E-15, 54.50000000000000000 ) ) ;
#107 = FACE_OUTER_BOUND ( 'NONE', #186, .T. ) ;
#108 = CC_DESIGN_SECURITY_CLASSIFICATION ( #64, ( #134 ) ) ;
#109 = FACE_OUTER_BOUND ( 'NONE', #176, .T. ) ;
#110 = AXIS2_PLACEMENT_3D ( 'NONE', #104, #130, #203 ) ;
#111 = FACE_OUTER_BOUND ( 'NONE', #164, .T. ) ;
#112 = APPLICATION_CONTEXT ( 'configuration controlled 3d designs of mechanical parts and assemblies' ) ;
#113 = ORIENTED_EDGE ( 'NONE', *, *, #18, .F. ) ;
#114 = DIRECTION ( 'NONE',  ( -3.491481338843133355E-15, 1.224646799147353207E-16, -1.000000000000000000 ) ) ;
#115 = ORIENTED_EDGE ( 'NONE', *, *, #18, .T. ) ;
#116 = AXIS2_PLACEMENT_3D ( 'NONE', #67, #142, #14 ) ;
#117 = EDGE_CURVE ( 'NONE', #97, #97, #102, .T. ) ;
#118 = CC_DESIGN_DATE_AND_TIME_ASSIGNMENT ( #196, #68, ( #92 ) ) ;
#119 = APPROVAL_ROLE ( '' ) ;
#120 = COORDINATED_UNIVERSAL_TIME_OFFSET ( 1, 0, .AHEAD. ) ;
#121 = PERSON_AND_ORGANIZATION ( #162, #70 ) ;
#122 = FACE_OUTER_BOUND ( 'NONE', #45, .T. ) ;
#123 = EDGE_LOOP ( 'NONE', ( #166 ) ) ;
#124 = DIRECTION ( 'NONE',  ( -3.491481338843133355E-15, 1.224646799147353207E-16, -1.000000000000000000 ) ) ;
#125 = APPROVAL ( #10, 'UNSPECIFIED' ) ;
#126 = CARTESIAN_POINT ( 'NONE',  ( 4.538925740496073362E-14, 2.999999999999998224, 13.00000000000000000 ) ) ;
#127 = DIRECTION ( 'NONE',  ( 3.491481338843133355E-15, -1.224646799147353207E-16, 1.000000000000000000 ) ) ;
#128 = PRODUCT_RELATED_PRODUCT_CATEGORY ( 'detail', '', ( #180 ) ) ;
#129 = ORIENTED_EDGE ( 'NONE', *, *, #158, .F. ) ;
#130 = DIRECTION ( 'NONE',  ( -3.491481338843133355E-15, 1.224646799147353207E-16, -1.000000000000000000 ) ) ;
#131 = PLANE ( 'NONE',  #110 ) ;
#132 = APPROVAL_PERSON_ORGANIZATION ( #100, #9, #103 ) ;
#133 = CARTESIAN_POINT ( 'NONE',  ( 4.538925740496073362E-14, 2.249639673992783675E-32, 13.00000000000000000 ) ) ;
#134 = PRODUCT_DEFINITION_FORMATION_WITH_SPECIFIED_SOURCE ( 'ANY', '', #180, .NOT_KNOWN. ) ;
#135 = ADVANCED_FACE ( 'NONE', ( #87 ), #7, .F. ) ;
#136 = CC_DESIGN_PERSON_AND_ORGANIZATION_ASSIGNMENT ( #121, #82, ( #180 ) ) ;
#137 = CALENDAR_DATE ( 2021, 15, 11 ) ;
#138 = CALENDAR_DATE ( 2021, 15, 11 ) ;
#139 = CIRCLE ( 'NONE', #191, 2.499999999999998668 ) ;
#140 = APPROVAL_DATE_TIME ( #181, #32 ) ;
#141 = PERSON_AND_ORGANIZATION ( #162, #70 ) ;
#142 = DIRECTION ( 'NONE',  ( -3.491481338843133355E-15, 1.224646799147353207E-16, -1.000000000000000000 ) ) ;
#143 =( NAMED_UNIT ( * ) SI_UNIT ( $, .STERADIAN. ) SOLID_ANGLE_UNIT ( ) );
#144 = ADVANCED_FACE ( 'NONE', ( #189, #153 ), #145, .T. ) ;
#145 = CONICAL_SURFACE ( 'NONE', #48, 3.000000000000002220, 0.7853981633974445042 ) ;
#146 = EDGE_LOOP ( 'NONE', ( #91 ) ) ;
#147 = DIRECTION ( 'NONE',  ( -3.491481338843133355E-15, 1.224646799147353207E-16, -1.000000000000000000 ) ) ;
#148 = CC_DESIGN_PERSON_AND_ORGANIZATION_ASSIGNMENT ( #171, #39, ( #92 ) ) ;
#149 = AXIS2_PLACEMENT_3D ( 'NONE', #30, #13, #69 ) ;
#150 = ORIENTED_EDGE ( 'NONE', *, *, #79, .F. ) ;
#151 = DIRECTION ( 'NONE',  ( -3.491481338843133355E-15, 1.224646799147353207E-16, -1.000000000000000000 ) ) ;
#152 = EDGE_CURVE ( 'NONE', #89, #89, #50, .T. ) ;
#153 = FACE_OUTER_BOUND ( 'NONE', #42, .T. ) ;
#154 = ADVANCED_FACE ( 'NONE', ( #109 ), #75, .F. ) ;
#155 = CALENDAR_DATE ( 2021, 15, 11 ) ;
#156 = MECHANICAL_CONTEXT ( 'NONE', #112, 'mechanical' ) ;
#157 = LOCAL_TIME ( 8, 42, 2.000000000000000000, #84 ) ;
#158 = EDGE_CURVE ( 'NONE', #37, #37, #139, .T. ) ;
#159 = PERSON_AND_ORGANIZATION_ROLE ( 'creator' ) ;
#160 = PERSON_AND_ORGANIZATION_ROLE ( 'design_supplier' ) ;
#161 = DIRECTION ( 'NONE',  ( 0.0000000000000000000, 1.000000000000000000, 0.0000000000000000000 ) ) ;
#162 = PERSON ( 'UNSPECIFIED', 'UNSPECIFIED', 'UNSPECIFIED', ('UNSPECIFIED'), ('UNSPECIFIED'), ('UNSPECIFIED') ) ;
#163 = PERSON_AND_ORGANIZATION ( #162, #70 ) ;
#164 = EDGE_LOOP ( 'NONE', ( #85 ) ) ;
#165 = CARTESIAN_POINT ( 'NONE',  ( 0.0000000000000000000, 0.0000000000000000000, 0.0000000000000000000 ) ) ;
#166 = ORIENTED_EDGE ( 'NONE', *, *, #117, .F. ) ;
#167 = CC_DESIGN_APPROVAL ( #9, ( #134 ) ) ;
#168 = AXIS2_PLACEMENT_3D ( 'NONE', #106, #28, #161 ) ;
#169 = CALENDAR_DATE ( 2021, 15, 11 ) ;
#170 = CC_DESIGN_PERSON_AND_ORGANIZATION_ASSIGNMENT ( #163, #159, ( #134 ) ) ;
#171 = PERSON_AND_ORGANIZATION ( #162, #70 ) ;
#172 = SECURITY_CLASSIFICATION_LEVEL ( 'unclassified' ) ;
#173 = DIRECTION ( 'NONE',  ( 0.0000000000000000000, 1.000000000000000000, 0.0000000000000000000 ) ) ;
#174 = APPROVAL_ROLE ( '' ) ;
#175 = CYLINDRICAL_SURFACE ( 'NONE', #62, 3.000000000000000888 ) ;
#176 = EDGE_LOOP ( 'NONE', ( #129 ) ) ;
#177 = CARTESIAN_POINT ( 'NONE',  ( 0.0000000000000000000, 3.000000000000000000, 0.0000000000000000000 ) ) ;
#178 = AXIS2_PLACEMENT_3D ( 'NONE', #98, #22, #21 ) ;
#179 = UNCERTAINTY_MEASURE_WITH_UNIT (LENGTH_MEASURE( 1.000000000000000082E-05 ), #197, 'distance_accuracy_value', 'NONE');
#180 = PRODUCT ( '334905', '334905', '', ( #156 ) ) ;
#181 = DATE_AND_TIME ( #12, #157 ) ;
#182 = PERSON_AND_ORGANIZATION ( #162, #70 ) ;
#183 = APPLICATION_PROTOCOL_DEFINITION ( 'international standard', 'config_control_design', 1994, #29 ) ;
#184 = DIRECTION ( 'NONE',  ( -4.275831445896958607E-31, -1.000000000000000000, -1.224646799147353207E-16 ) ) ;
#185 = EDGE_LOOP ( 'NONE', ( #115 ) ) ;
#186 = EDGE_LOOP ( 'NONE', ( #113 ) ) ;
#187 = ADVANCED_FACE ( 'NONE', ( #59, #57 ), #20, .T. ) ;
#188 = APPROVAL_PERSON_ORGANIZATION ( #182, #32, #119 ) ;
#189 = FACE_BOUND ( 'NONE', #146, .T. ) ;
#190 = CARTESIAN_POINT ( 'NONE',  ( 1.920314736363723724E-13, -6.735557395310444193E-15, 55.00000000000000711 ) ) ;
#191 = AXIS2_PLACEMENT_3D ( 'NONE', #190, #151, #6 ) ;
#192 = DIRECTION ( 'NONE',  ( 1.000000000000000000, 0.0000000000000000000, 0.0000000000000000000 ) ) ;
#193 = AXIS2_PLACEMENT_3D ( 'NONE', #88, #127, #184 ) ;
#194 = APPLICATION_PROTOCOL_DEFINITION ( 'international standard', 'config_control_design', 1994, #112 ) ;
#195 = LOCAL_TIME ( 8, 42, 2.000000000000000000, #41 ) ;
#196 = DATE_AND_TIME ( #138, #16 ) ;
#197 =( LENGTH_UNIT ( ) NAMED_UNIT ( * ) SI_UNIT ( .MILLI., .METRE. ) );
#198 = CARTESIAN_POINT ( 'NONE',  ( 4.538925740496073362E-14, -1.592040838891559095E-15, 13.00000000000000000 ) ) ;
#199 = VERTEX_POINT ( 'NONE', #63 ) ;
#200 = PLANE ( 'NONE',  #193 ) ;
#201 = CC_DESIGN_APPROVAL ( #125, ( #64 ) ) ;
#202 = AXIS2_PLACEMENT_3D ( 'NONE', #81, #25, #192 ) ;
#203 = DIRECTION ( 'NONE',  ( 4.275831445896958607E-31, 1.000000000000000000, 1.224646799147353207E-16 ) ) ;
ENDSEC;
END-ISO-10303-21;
