ISO-10303-21;
HEADER;
FILE_DESCRIPTION (( 'STEP AP203' ),
    '1' );
FILE_NAME ('334904.step',
    '2021-11-15T07:42:01',
    ( '' ),
    ( '' ),
    'SwSTEP 2.0',
    'SolidWorks 2019',
    '' );
FILE_SCHEMA (( 'CONFIG_CONTROL_DESIGN' ));
ENDSEC;

DATA;
#1 = MECHANICAL_CONTEXT ( 'NONE', #170, 'mechanical' ) ;
#2 = CARTESIAN_POINT ( 'NONE',  ( 0.0000000000000000000, 0.0000000000000000000, 0.0000000000000000000 ) ) ;
#3 = DIRECTION ( 'NONE',  ( 0.0000000000000000000, 0.0000000000000000000, 1.000000000000000000 ) ) ;
#4 = SHAPE_DEFINITION_REPRESENTATION ( #174, #71 ) ;
#5 = PERSON_AND_ORGANIZATION_ROLE ( 'design_owner' ) ;
#6 = DIRECTION ( 'NONE',  ( 1.000000000000000000, 0.0000000000000000000, -3.491481338843133355E-15 ) ) ;
#7 = DIRECTION ( 'NONE',  ( 1.000000000000000000, 0.0000000000000000000, -3.469446951953613006E-15 ) ) ;
#8 = CARTESIAN_POINT ( 'NONE',  ( 3.596225779008427356E-14, 2.249639673992784496E-32, 10.30000000000000071 ) ) ;
#9 = AXIS2_PLACEMENT_3D ( 'NONE', #2, #3, #111 ) ;
#10 = CIRCLE ( 'NONE', #84, 2.499999999999998668 ) ;
#11 = AXIS2_PLACEMENT_3D ( 'NONE', #96, #155, #59 ) ;
#12 = ADVANCED_FACE ( 'NONE', ( #160, #15 ), #208, .F. ) ;
#13 = ORIENTED_EDGE ( 'NONE', *, *, #108, .F. ) ;
#14 = ORIENTED_EDGE ( 'NONE', *, *, #187, .F. ) ;
#15 = FACE_OUTER_BOUND ( 'NONE', #236, .T. ) ;
#16 = FACE_OUTER_BOUND ( 'NONE', #49, .T. ) ;
#17 = FACE_BOUND ( 'NONE', #33, .T. ) ;
#18 = PERSON_AND_ORGANIZATION ( #34, #25 ) ;
#19 = CC_DESIGN_SECURITY_CLASSIFICATION ( #207, ( #93 ) ) ;
#20 = FACE_BOUND ( 'NONE', #107, .T. ) ;
#21 = PERSON_AND_ORGANIZATION ( #34, #25 ) ;
#22 = SECURITY_CLASSIFICATION_LEVEL ( 'unclassified' ) ;
#23 =( NAMED_UNIT ( * ) SI_UNIT ( $, .STERADIAN. ) SOLID_ANGLE_UNIT ( ) );
#24 = EDGE_CURVE ( 'NONE', #230, #230, #229, .T. ) ;
#25 = ORGANIZATION ( 'UNSPECIFIED', 'UNSPECIFIED', '' ) ;
#26 = COORDINATED_UNIVERSAL_TIME_OFFSET ( 1, 0, .AHEAD. ) ;
#27 = CARTESIAN_POINT ( 'NONE',  ( 1.920314736363723724E-13, -8.310224236210339646E-31, 55.00000000000000711 ) ) ;
#28 = CYLINDRICAL_SURFACE ( 'NONE', #158, 3.000000000000000888 ) ;
#29 = AXIS2_PLACEMENT_3D ( 'NONE', #164, #120, #239 ) ;
#30 = DATE_TIME_ROLE ( 'classification_date' ) ;
#31 = LOCAL_TIME ( 8, 42, 1.000000000000000000, #26 ) ;
#32 = AXIS2_PLACEMENT_3D ( 'NONE', #175, #54, #6 ) ;
#33 = EDGE_LOOP ( 'NONE', ( #63 ) ) ;
#34 = PERSON ( 'UNSPECIFIED', 'UNSPECIFIED', 'UNSPECIFIED', ('UNSPECIFIED'), ('UNSPECIFIED'), ('UNSPECIFIED') ) ;
#35 = FACE_OUTER_BOUND ( 'NONE', #182, .T. ) ;
#36 = DIRECTION ( 'NONE',  ( 1.000000000000000000, 0.0000000000000000000, -3.469446951953614978E-15 ) ) ;
#37 = APPROVAL_DATE_TIME ( #223, #235 ) ;
#38 = CC_DESIGN_PERSON_AND_ORGANIZATION_ASSIGNMENT ( #172, #5, ( #136 ) ) ;
#39 = CARTESIAN_POINT ( 'NONE',  ( -6.413747168845438786E-31, 2.249639673992786412E-32, -1.836970198721029934E-16 ) ) ;
#40 = CONICAL_SURFACE ( 'NONE', #237, 4.999999999999999112, 0.2617993877991428575 ) ;
#41 = DATE_AND_TIME ( #91, #123 ) ;
#42 = CC_DESIGN_PERSON_AND_ORGANIZATION_ASSIGNMENT ( #58, #116, ( #93 ) ) ;
#43 = APPROVAL_STATUS ( 'not_yet_approved' ) ;
#44 = DIRECTION ( 'NONE',  ( -3.491481338843133355E-15, 1.224646799147353207E-16, -1.000000000000000000 ) ) ;
#45 = DIRECTION ( 'NONE',  ( 1.000000000000000000, 0.0000000000000000000, -3.469446951953616161E-15 ) ) ;
#46 = CALENDAR_DATE ( 2021, 15, 11 ) ;
#47 = LOCAL_TIME ( 8, 42, 1.000000000000000000, #205 ) ;
#48 = CC_DESIGN_PERSON_AND_ORGANIZATION_ASSIGNMENT ( #89, #168, ( #85 ) ) ;
#49 = EDGE_LOOP ( 'NONE', ( #216 ) ) ;
#50 = ORIENTED_EDGE ( 'NONE', *, *, #181, .F. ) ;
#51 = DIRECTION ( 'NONE',  ( 0.0000000000000000000, 1.000000000000000000, 0.0000000000000000000 ) ) ;
#52 = DIRECTION ( 'NONE',  ( 1.000000000000000000, 0.0000000000000000000, -3.491481338843133355E-15 ) ) ;
#53 =( NAMED_UNIT ( * ) PLANE_ANGLE_UNIT ( ) SI_UNIT ( $, .RADIAN. ) );
#54 = DIRECTION ( 'NONE',  ( 3.491481338843133355E-15, -0.0000000000000000000, 1.000000000000000000 ) ) ;
#55 = APPROVAL_ROLE ( '' ) ;
#56 = CARTESIAN_POINT ( 'NONE',  ( 2.568148347421896016, 0.0000000000000000000, 10.81763809020501732 ) ) ;
#57 = AXIS2_PLACEMENT_3D ( 'NONE', #76, #44, #51 ) ;
#58 = PERSON_AND_ORGANIZATION ( #34, #25 ) ;
#59 = DIRECTION ( 'NONE',  ( 0.0000000000000000000, 1.000000000000000000, 0.0000000000000000000 ) ) ;
#60 = PRODUCT_RELATED_PRODUCT_CATEGORY ( 'detail', '', ( #136 ) ) ;
#61 = EDGE_LOOP ( 'NONE', ( #199 ) ) ;
#62 = AXIS2_PLACEMENT_3D ( 'NONE', #67, #219, #52 ) ;
#63 = ORIENTED_EDGE ( 'NONE', *, *, #108, .T. ) ;
#64 = ORIENTED_EDGE ( 'NONE', *, *, #24, .F. ) ;
#65 = CIRCLE ( 'NONE', #180, 2.499999999999998668 ) ;
#66 = CARTESIAN_POINT ( 'NONE',  ( 0.0000000000000000000, 0.0000000000000000000, 0.0000000000000000000 ) ) ;
#67 = CARTESIAN_POINT ( 'NONE',  ( -2.565498867538175514E-30, 0.0000000000000000000, -7.347880794884119736E-16 ) ) ;
#68 = ADVANCED_FACE ( 'NONE', ( #75, #16 ), #28, .T. ) ;
#69 = CARTESIAN_POINT ( 'NONE',  ( 3.596225779008427356E-14, 0.0000000000000000000, 10.30000000000000071 ) ) ;
#70 = COORDINATED_UNIVERSAL_TIME_OFFSET ( 1, 0, .AHEAD. ) ;
#71 = ADVANCED_BREP_SHAPE_REPRESENTATION ( '334904', ( #98, #95, #9 ), #202 ) ;
#72 = COORDINATED_UNIVERSAL_TIME_OFFSET ( 1, 0, .AHEAD. ) ;
#73 = VERTEX_POINT ( 'NONE', #56 ) ;
#74 = CALENDAR_DATE ( 2021, 15, 11 ) ;
#75 = FACE_OUTER_BOUND ( 'NONE', #103, .T. ) ;
#76 = CARTESIAN_POINT ( 'NONE',  ( 1.902857329669507616E-13, -6.674325055353075041E-15, 54.50000000000000000 ) ) ;
#77 = PERSON_AND_ORGANIZATION ( #34, #25 ) ;
#78 = DIRECTION ( 'NONE',  ( -4.275831445896958607E-31, -1.000000000000000000, -1.224646799147353207E-16 ) ) ;
#79 = UNCERTAINTY_MEASURE_WITH_UNIT (LENGTH_MEASURE( 1.000000000000000082E-05 ), #193, 'distance_accuracy_value', 'NONE');
#80 = AXIS2_PLACEMENT_3D ( 'NONE', #8, #177, #78 ) ;
#81 = ORIENTED_EDGE ( 'NONE', *, *, #187, .T. ) ;
#82 = ORIENTED_EDGE ( 'NONE', *, *, #97, .F. ) ;
#83 = AXIS2_PLACEMENT_3D ( 'NONE', #197, #86, #240 ) ;
#84 = AXIS2_PLACEMENT_3D ( 'NONE', #204, #112, #154 ) ;
#85 = PRODUCT_DEFINITION ( 'UNKNOWN', '', #93, #232 ) ;
#86 = DIRECTION ( 'NONE',  ( 3.491481338843133355E-15, -0.0000000000000000000, 1.000000000000000000 ) ) ;
#87 = CARTESIAN_POINT ( 'NONE',  ( 1.920314736363723724E-13, 2.499999999999992006, 55.00000000000000711 ) ) ;
#88 = PLANE ( 'NONE',  #132 ) ;
#89 = PERSON_AND_ORGANIZATION ( #34, #25 ) ;
#90 = APPROVAL_STATUS ( 'not_yet_approved' ) ;
#91 = CALENDAR_DATE ( 2021, 15, 11 ) ;
#92 = DIRECTION ( 'NONE',  ( 4.275831445896958607E-31, 1.000000000000000000, 1.224646799147353207E-16 ) ) ;
#93 = PRODUCT_DEFINITION_FORMATION_WITH_SPECIFIED_SOURCE ( 'ANY', '', #136, .NOT_KNOWN. ) ;
#94 = CALENDAR_DATE ( 2021, 15, 11 ) ;
#95 = MANIFOLD_SOLID_BREP ( 'Corps-Déplacer/Copier1[2]', #104 ) ;
#96 = CARTESIAN_POINT ( 'NONE',  ( 1.902857329669507616E-13, -6.674325055353075041E-15, 54.50000000000000000 ) ) ;
#97 = EDGE_CURVE ( 'NONE', #145, #145, #162, .T. ) ;
#98 = MANIFOLD_SOLID_BREP ( 'Corps-Déplacer/Copier1[1]', #131 ) ;
#99 = PLANE ( 'NONE',  #80 ) ;
#100 = CIRCLE ( 'NONE', #83, 2.568148347421858269 ) ;
#101 = APPROVAL_STATUS ( 'not_yet_approved' ) ;
#102 = ADVANCED_FACE ( 'NONE', ( #196 ), #134, .T. ) ;
#103 = EDGE_LOOP ( 'NONE', ( #234 ) ) ;
#104 = CLOSED_SHELL ( 'NONE', ( #211, #122, #102 ) ) ;
#105 = CC_DESIGN_DATE_AND_TIME_ASSIGNMENT ( #121, #30, ( #207 ) ) ;
#106 = ORIENTED_EDGE ( 'NONE', *, *, #176, .T. ) ;
#107 = EDGE_LOOP ( 'NONE', ( #161 ) ) ;
#108 = EDGE_CURVE ( 'NONE', #190, #190, #10, .T. ) ;
#109 = CARTESIAN_POINT ( 'NONE',  ( 3.596225779008427356E-14, 2.249639673992784496E-32, 10.30000000000000071 ) ) ;
#110 = DIRECTION ( 'NONE',  ( -3.491481338843133355E-15, 1.224646799147353207E-16, -1.000000000000000000 ) ) ;
#111 = DIRECTION ( 'NONE',  ( 1.000000000000000000, 0.0000000000000000000, 0.0000000000000000000 ) ) ;
#112 = DIRECTION ( 'NONE',  ( -3.491481338843133355E-15, 1.224646799147353207E-16, -1.000000000000000000 ) ) ;
#113 = CC_DESIGN_APPROVAL ( #218, ( #207 ) ) ;
#114 = DATE_TIME_ROLE ( 'creation_date' ) ;
#115 = CONICAL_SURFACE ( 'NONE', #11, 3.000000000000002220, 0.7853981633974445042 ) ;
#116 = PERSON_AND_ORGANIZATION_ROLE ( 'creator' ) ;
#117 = PERSON_AND_ORGANIZATION ( #34, #25 ) ;
#118 = CARTESIAN_POINT ( 'NONE',  ( 2.500000000000034639, 0.0000000000000000000, 10.29999999999999183 ) ) ;
#119 = PLANE ( 'NONE',  #142 ) ;
#120 = DIRECTION ( 'NONE',  ( 3.491481338843133355E-15, -0.0000000000000000000, 1.000000000000000000 ) ) ;
#121 = DATE_AND_TIME ( #46, #214 ) ;
#122 = ADVANCED_FACE ( 'NONE', ( #203, #226 ), #217, .T. ) ;
#123 = LOCAL_TIME ( 8, 42, 1.000000000000000000, #72 ) ;
#124 = AXIS2_PLACEMENT_3D ( 'NONE', #39, #144, #221 ) ;
#125 = ADVANCED_FACE ( 'NONE', ( #173, #20 ), #40, .T. ) ;
#126 = DIRECTION ( 'NONE',  ( 4.275831445896958607E-31, 1.000000000000000000, 1.224646799147353207E-16 ) ) ;
#127 = FACE_OUTER_BOUND ( 'NONE', #184, .T. ) ;
#128 = VERTEX_POINT ( 'NONE', #242 ) ;
#129 = DATE_AND_TIME ( #94, #31 ) ;
#130 = APPROVAL_PERSON_ORGANIZATION ( #117, #218, #194 ) ;
#131 = CLOSED_SHELL ( 'NONE', ( #68, #138, #137, #12, #125, #167 ) ) ;
#132 = AXIS2_PLACEMENT_3D ( 'NONE', #109, #163, #188 ) ;
#133 = PERSON_AND_ORGANIZATION ( #34, #25 ) ;
#134 = PLANE ( 'NONE',  #124 ) ;
#135 = DIRECTION ( 'NONE',  ( 1.000000000000000000, 0.0000000000000000000, -3.491481338843133355E-15 ) ) ;
#136 = PRODUCT ( '334904', '334904', '', ( #1 ) ) ;
#137 = ADVANCED_FACE ( 'NONE', ( #35 ), #119, .F. ) ;
#138 = ADVANCED_FACE ( 'NONE', ( #17, #243 ), #115, .T. ) ;
#139 = ORIENTED_EDGE ( 'NONE', *, *, #178, .T. ) ;
#140 = CC_DESIGN_DATE_AND_TIME_ASSIGNMENT ( #222, #114, ( #85 ) ) ;
#141 = ORIENTED_EDGE ( 'NONE', *, *, #178, .F. ) ;
#142 = AXIS2_PLACEMENT_3D ( 'NONE', #27, #110, #126 ) ;
#143 = DIRECTION ( 'NONE',  ( 3.491481338843133355E-15, -0.0000000000000000000, 1.000000000000000000 ) ) ;
#144 = DIRECTION ( 'NONE',  ( -3.491481338843133355E-15, 1.224646799147353207E-16, -1.000000000000000000 ) ) ;
#145 = VERTEX_POINT ( 'NONE', #195 ) ;
#146 = CARTESIAN_POINT ( 'NONE',  ( 4.339677514228200419E-14, 0.0000000000000000000, 12.42933039895928182 ) ) ;
#147 = CALENDAR_DATE ( 2021, 15, 11 ) ;
#148 = APPROVAL ( #90, 'UNSPECIFIED' ) ;
#149 = VERTEX_POINT ( 'NONE', #118 ) ;
#150 = APPROVAL_PERSON_ORGANIZATION ( #21, #148, #169 ) ;
#151 = APPLICATION_PROTOCOL_DEFINITION ( 'international standard', 'config_control_design', 1994, #170 ) ;
#152 = AXIS2_PLACEMENT_3D ( 'NONE', #228, #210, #135 ) ;
#153 = APPROVAL_DATE_TIME ( #41, #148 ) ;
#154 = DIRECTION ( 'NONE',  ( 0.0000000000000000000, 1.000000000000000000, 0.0000000000000000000 ) ) ;
#155 = DIRECTION ( 'NONE',  ( -3.491481338843133355E-15, 1.224646799147353207E-16, -1.000000000000000000 ) ) ;
#156 = CARTESIAN_POINT ( 'NONE',  ( 1.902857329669507616E-13, 2.999999999999995559, 54.50000000000000000 ) ) ;
#157 = LOCAL_TIME ( 8, 42, 1.000000000000000000, #70 ) ;
#158 = AXIS2_PLACEMENT_3D ( 'NONE', #66, #206, #92 ) ;
#159 = EDGE_LOOP ( 'NONE', ( #81 ) ) ;
#160 = FACE_OUTER_BOUND ( 'NONE', #200, .T. ) ;
#161 = ORIENTED_EDGE ( 'NONE', *, *, #181, .T. ) ;
#162 = CIRCLE ( 'NONE', #215, 3.000000000000000888 ) ;
#163 = DIRECTION ( 'NONE',  ( 3.491481338843133355E-15, -1.224646799147353207E-16, 1.000000000000000000 ) ) ;
#164 = CARTESIAN_POINT ( 'NONE',  ( 3.596225779008427356E-14, 0.0000000000000000000, 10.30000000000000071 ) ) ;
#165 = VERTEX_POINT ( 'NONE', #220 ) ;
#166 = CARTESIAN_POINT ( 'NONE',  ( 6.945754664276502823E-14, 0.0000000000000000000, 19.89343201409722539 ) ) ;
#167 = ADVANCED_FACE ( 'NONE', ( #189 ), #88, .F. ) ;
#168 = PERSON_AND_ORGANIZATION_ROLE ( 'creator' ) ;
#169 = APPROVAL_ROLE ( '' ) ;
#170 = APPLICATION_CONTEXT ( 'configuration controlled 3d designs of mechanical parts and assemblies' ) ;
#171 = CIRCLE ( 'NONE', #62, 2.499999999999999556 ) ;
#172 = PERSON_AND_ORGANIZATION ( #34, #25 ) ;
#173 = FACE_OUTER_BOUND ( 'NONE', #186, .T. ) ;
#174 = PRODUCT_DEFINITION_SHAPE ( 'NONE', 'NONE',  #85 ) ;
#175 = CARTESIAN_POINT ( 'NONE',  ( 3.596225779008427356E-14, 0.0000000000000000000, 10.30000000000000071 ) ) ;
#176 = EDGE_CURVE ( 'NONE', #149, #149, #65, .T. ) ;
#177 = DIRECTION ( 'NONE',  ( 3.491481338843133355E-15, -1.224646799147353207E-16, 1.000000000000000000 ) ) ;
#178 = EDGE_CURVE ( 'NONE', #165, #165, #209, .T. ) ;
#179 = APPROVAL_PERSON_ORGANIZATION ( #18, #235, #55 ) ;
#180 = AXIS2_PLACEMENT_3D ( 'NONE', #69, #212, #45 ) ;
#181 = EDGE_CURVE ( 'NONE', #73, #73, #100, .T. ) ;
#182 = EDGE_LOOP ( 'NONE', ( #13 ) ) ;
#183 = EDGE_LOOP ( 'NONE', ( #14 ) ) ;
#184 = EDGE_LOOP ( 'NONE', ( #139 ) ) ;
#185 = CC_DESIGN_APPROVAL ( #235, ( #85 ) ) ;
#186 = EDGE_LOOP ( 'NONE', ( #82 ) ) ;
#187 = EDGE_CURVE ( 'NONE', #128, #128, #171, .T. ) ;
#188 = DIRECTION ( 'NONE',  ( -4.275831445896958607E-31, -1.000000000000000000, -1.224646799147353207E-16 ) ) ;
#189 = FACE_OUTER_BOUND ( 'NONE', #61, .T. ) ;
#190 = VERTEX_POINT ( 'NONE', #87 ) ;
#191 = DIRECTION ( 'NONE',  ( 3.491481338843133355E-15, -0.0000000000000000000, 1.000000000000000000 ) ) ;
#192 = PERSON_AND_ORGANIZATION_ROLE ( 'design_supplier' ) ;
#193 =( LENGTH_UNIT ( ) NAMED_UNIT ( * ) SI_UNIT ( .MILLI., .METRE. ) );
#194 = APPROVAL_ROLE ( '' ) ;
#195 = CARTESIAN_POINT ( 'NONE',  ( 3.000000000000044409, 0.0000000000000000000, 12.42933039895927116 ) ) ;
#196 = FACE_OUTER_BOUND ( 'NONE', #183, .T. ) ;
#197 = CARTESIAN_POINT ( 'NONE',  ( 3.776958152230952521E-14, 0.0000000000000000000, 10.81763809020502620 ) ) ;
#198 = PERSON_AND_ORGANIZATION_ROLE ( 'classification_officer' ) ;
#199 = ORIENTED_EDGE ( 'NONE', *, *, #176, .F. ) ;
#200 = EDGE_LOOP ( 'NONE', ( #106 ) ) ;
#201 = EDGE_LOOP ( 'NONE', ( #141 ) ) ;
#202 =( GEOMETRIC_REPRESENTATION_CONTEXT ( 3 ) GLOBAL_UNCERTAINTY_ASSIGNED_CONTEXT ( ( #79 ) ) GLOBAL_UNIT_ASSIGNED_CONTEXT ( ( #193, #53, #23 ) ) REPRESENTATION_CONTEXT ( 'NONE', 'WORKASPACE' ) );
#203 = FACE_OUTER_BOUND ( 'NONE', #159, .T. ) ;
#204 = CARTESIAN_POINT ( 'NONE',  ( 1.920314736363723724E-13, -6.735557395310444193E-15, 55.00000000000000711 ) ) ;
#205 = COORDINATED_UNIVERSAL_TIME_OFFSET ( 1, 0, .AHEAD. ) ;
#206 = DIRECTION ( 'NONE',  ( -3.491481338843133355E-15, 1.224646799147353207E-16, -1.000000000000000000 ) ) ;
#207 = SECURITY_CLASSIFICATION ( '', '', #22 ) ;
#208 = TOROIDAL_SURFACE ( 'NONE', #32, 4.499999999999999112, 2.000000000000000000 ) ;
#209 = CIRCLE ( 'NONE', #29, 2.499999999999998668 ) ;
#210 = DIRECTION ( 'NONE',  ( 3.491481338843133355E-15, -0.0000000000000000000, 1.000000000000000000 ) ) ;
#211 = ADVANCED_FACE ( 'NONE', ( #127 ), #99, .T. ) ;
#212 = DIRECTION ( 'NONE',  ( 3.491481338843133355E-15, -0.0000000000000000000, 1.000000000000000000 ) ) ;
#213 = APPLICATION_CONTEXT ( 'configuration controlled 3d designs of mechanical parts and assemblies' ) ;
#214 = LOCAL_TIME ( 8, 42, 1.000000000000000000, #231 ) ;
#215 = AXIS2_PLACEMENT_3D ( 'NONE', #146, #191, #7 ) ;
#216 = ORIENTED_EDGE ( 'NONE', *, *, #97, .T. ) ;
#217 = CYLINDRICAL_SURFACE ( 'NONE', #152, 2.499999999999999112 ) ;
#218 = APPROVAL ( #101, 'UNSPECIFIED' ) ;
#219 = DIRECTION ( 'NONE',  ( 3.491481338843133355E-15, -0.0000000000000000000, 1.000000000000000000 ) ) ;
#220 = CARTESIAN_POINT ( 'NONE',  ( 2.500000000000034639, 0.0000000000000000000, 10.29999999999999183 ) ) ;
#221 = DIRECTION ( 'NONE',  ( 4.275831445896958607E-31, 1.000000000000000000, 1.224646799147353207E-16 ) ) ;
#222 = DATE_AND_TIME ( #147, #157 ) ;
#223 = DATE_AND_TIME ( #74, #47 ) ;
#224 = CC_DESIGN_APPROVAL ( #148, ( #93 ) ) ;
#225 = APPLICATION_PROTOCOL_DEFINITION ( 'international standard', 'config_control_design', 1994, #213 ) ;
#226 = FACE_OUTER_BOUND ( 'NONE', #201, .T. ) ;
#227 = CC_DESIGN_PERSON_AND_ORGANIZATION_ASSIGNMENT ( #77, #198, ( #207 ) ) ;
#228 = CARTESIAN_POINT ( 'NONE',  ( 0.0000000000000000000, 0.0000000000000000000, 0.0000000000000000000 ) ) ;
#229 = CIRCLE ( 'NONE', #57, 3.000000000000002220 ) ;
#230 = VERTEX_POINT ( 'NONE', #156 ) ;
#231 = COORDINATED_UNIVERSAL_TIME_OFFSET ( 1, 0, .AHEAD. ) ;
#232 = DESIGN_CONTEXT ( 'detailed design', #213, 'design' ) ;
#233 = EDGE_LOOP ( 'NONE', ( #64 ) ) ;
#234 = ORIENTED_EDGE ( 'NONE', *, *, #24, .T. ) ;
#235 = APPROVAL ( #43, 'UNSPECIFIED' ) ;
#236 = EDGE_LOOP ( 'NONE', ( #50 ) ) ;
#237 = AXIS2_PLACEMENT_3D ( 'NONE', #166, #143, #36 ) ;
#238 = CC_DESIGN_PERSON_AND_ORGANIZATION_ASSIGNMENT ( #133, #192, ( #93 ) ) ;
#239 = DIRECTION ( 'NONE',  ( 1.000000000000000000, 0.0000000000000000000, -3.469446951953616161E-15 ) ) ;
#240 = DIRECTION ( 'NONE',  ( 1.000000000000000000, 0.0000000000000000000, -3.377381757791135572E-15 ) ) ;
#241 = APPROVAL_DATE_TIME ( #129, #218 ) ;
#242 = CARTESIAN_POINT ( 'NONE',  ( 2.499999999999999556, 0.0000000000000000000, -9.463491426596244277E-15 ) ) ;
#243 = FACE_OUTER_BOUND ( 'NONE', #233, .T. ) ;
ENDSEC;
END-ISO-10303-21;
