ISO-10303-21;
HEADER;
FILE_DESCRIPTION (( 'STEP AP203' ),
    '1' );
FILE_NAME ('334903.step',
    '2021-11-15T07:42:01',
    ( '' ),
    ( '' ),
    'SwSTEP 2.0',
    'SolidWorks 2019',
    '' );
FILE_SCHEMA (( 'CONFIG_CONTROL_DESIGN' ));
ENDSEC;

DATA;
#1 = SECURITY_CLASSIFICATION ( '', '', #168 ) ;
#2 = ORIENTED_EDGE ( 'NONE', *, *, #233, .F. ) ;
#3 = PERSON_AND_ORGANIZATION ( #167, #173 ) ;
#4 = EDGE_LOOP ( 'NONE', ( #127 ) ) ;
#5 = COORDINATED_UNIVERSAL_TIME_OFFSET ( 1, 0, .AHEAD. ) ;
#6 = PERSON_AND_ORGANIZATION ( #167, #173 ) ;
#7 = EDGE_LOOP ( 'NONE', ( #73 ) ) ;
#8 = CALENDAR_DATE ( 2021, 15, 11 ) ;
#9 = FACE_OUTER_BOUND ( 'NONE', #7, .T. ) ;
#10 = CARTESIAN_POINT ( 'NONE',  ( 2.897929511239800685E-14, 2.249639673992785043E-32, 8.300000000000000711 ) ) ;
#11 = AXIS2_PLACEMENT_3D ( 'NONE', #118, #240, #140 ) ;
#12 = PLANE ( 'NONE',  #195 ) ;
#13 = APPROVAL ( #124, 'UNSPECIFIED' ) ;
#14 = FACE_OUTER_BOUND ( 'NONE', #182, .T. ) ;
#15 = VERTEX_POINT ( 'NONE', #33 ) ;
#16 = PRODUCT_DEFINITION_FORMATION_WITH_SPECIFIED_SOURCE ( 'ANY', '', #52, .NOT_KNOWN. ) ;
#17 = CARTESIAN_POINT ( 'NONE',  ( 1.920314736363723724E-13, -8.310224236210339646E-31, 55.00000000000000711 ) ) ;
#18 =( NAMED_UNIT ( * ) SI_UNIT ( $, .STERADIAN. ) SOLID_ANGLE_UNIT ( ) );
#19 = AXIS2_PLACEMENT_3D ( 'NONE', #112, #191, #170 ) ;
#20 = CONICAL_SURFACE ( 'NONE', #125, 4.999999999999999112, 0.2617993877991426910 ) ;
#21 = LOCAL_TIME ( 8, 42, 1.000000000000000000, #162 ) ;
#22 = APPROVAL_ROLE ( '' ) ;
#23 = PERSON_AND_ORGANIZATION ( #167, #173 ) ;
#24 = ORIENTED_EDGE ( 'NONE', *, *, #94, .T. ) ;
#25 = CC_DESIGN_SECURITY_CLASSIFICATION ( #1, ( #16 ) ) ;
#26 = DIRECTION ( 'NONE',  ( 3.491481338843133355E-15, -0.0000000000000000000, 1.000000000000000000 ) ) ;
#27 = ADVANCED_FACE ( 'NONE', ( #76, #93 ), #103, .F. ) ;
#28 = FACE_BOUND ( 'NONE', #189, .T. ) ;
#29 = AXIS2_PLACEMENT_3D ( 'NONE', #32, #26, #132 ) ;
#30 = AXIS2_PLACEMENT_3D ( 'NONE', #216, #98, #68 ) ;
#31 = FACE_OUTER_BOUND ( 'NONE', #131, .T. ) ;
#32 = CARTESIAN_POINT ( 'NONE',  ( 2.897929511239800685E-14, 0.0000000000000000000, 8.300000000000000711 ) ) ;
#33 = CARTESIAN_POINT ( 'NONE',  ( 2.000000000000028422, 0.0000000000000000000, 8.299999999999993605 ) ) ;
#34 = AXIS2_PLACEMENT_3D ( 'NONE', #154, #215, #177 ) ;
#35 = DIRECTION ( 'NONE',  ( 1.000000000000000000, 0.0000000000000000000, 0.0000000000000000000 ) ) ;
#36 = CC_DESIGN_PERSON_AND_ORGANIZATION_ASSIGNMENT ( #226, #208, ( #1 ) ) ;
#37 = CONICAL_SURFACE ( 'NONE', #236, 3.000000000000002220, 0.7853981633974445042 ) ;
#38 = ORIENTED_EDGE ( 'NONE', *, *, #183, .T. ) ;
#39 = ADVANCED_FACE ( 'NONE', ( #231 ), #12, .T. ) ;
#40 = DATE_AND_TIME ( #224, #111 ) ;
#41 = ORIENTED_EDGE ( 'NONE', *, *, #94, .F. ) ;
#42 = PERSON_AND_ORGANIZATION_ROLE ( 'creator' ) ;
#43 = APPROVAL_DATE_TIME ( #202, #13 ) ;
#44 = CC_DESIGN_APPROVAL ( #102, ( #16 ) ) ;
#45 = DIRECTION ( 'NONE',  ( -4.275831445896958607E-31, -1.000000000000000000, -1.224646799147353207E-16 ) ) ;
#46 = MANIFOLD_SOLID_BREP ( 'Corps-Déplacer/Copier1[1]', #96 ) ;
#47 = DIRECTION ( 'NONE',  ( -3.491481338843133355E-15, 1.224646799147353207E-16, -1.000000000000000000 ) ) ;
#48 = DIRECTION ( 'NONE',  ( 1.000000000000000000, 0.0000000000000000000, -3.469446951953615767E-15 ) ) ;
#49 = VERTEX_POINT ( 'NONE', #176 ) ;
#50 = DIRECTION ( 'NONE',  ( 1.000000000000000000, 0.0000000000000000000, -3.491481338843133355E-15 ) ) ;
#51 =( GEOMETRIC_REPRESENTATION_CONTEXT ( 3 ) GLOBAL_UNCERTAINTY_ASSIGNED_CONTEXT ( ( #238 ) ) GLOBAL_UNIT_ASSIGNED_CONTEXT ( ( #137, #178, #18 ) ) REPRESENTATION_CONTEXT ( 'NONE', 'WORKASPACE' ) );
#52 = PRODUCT ( '334903', '334903', '', ( #220 ) ) ;
#53 = APPLICATION_PROTOCOL_DEFINITION ( 'international standard', 'config_control_design', 1994, #107 ) ;
#54 = APPROVAL_ROLE ( '' ) ;
#55 = EDGE_LOOP ( 'NONE', ( #161 ) ) ;
#56 = DATE_TIME_ROLE ( 'classification_date' ) ;
#57 = CARTESIAN_POINT ( 'NONE',  ( 4.292900533971649507E-14, 0.0000000000000000000, 12.29535580274376727 ) ) ;
#58 = CIRCLE ( 'NONE', #230, 2.000000000000000000 ) ;
#59 = LOCAL_TIME ( 8, 42, 1.000000000000000000, #200 ) ;
#60 = FACE_OUTER_BOUND ( 'NONE', #55, .T. ) ;
#61 = DIRECTION ( 'NONE',  ( 1.000000000000000000, 0.0000000000000000000, -3.469446951953614978E-15 ) ) ;
#62 = ORIENTED_EDGE ( 'NONE', *, *, #143, .F. ) ;
#63 = CC_DESIGN_PERSON_AND_ORGANIZATION_ASSIGNMENT ( #23, #105, ( #16 ) ) ;
#64 = VERTEX_POINT ( 'NONE', #81 ) ;
#65 = ADVANCED_FACE ( 'NONE', ( #190, #60 ), #78, .T. ) ;
#66 = DIRECTION ( 'NONE',  ( 0.0000000000000000000, 1.000000000000000000, 0.0000000000000000000 ) ) ;
#67 = AXIS2_PLACEMENT_3D ( 'NONE', #122, #199, #35 ) ;
#68 = DIRECTION ( 'NONE',  ( 0.0000000000000000000, 1.000000000000000000, 0.0000000000000000000 ) ) ;
#69 = PERSON_AND_ORGANIZATION ( #167, #173 ) ;
#70 = EDGE_LOOP ( 'NONE', ( #172 ) ) ;
#71 = EDGE_CURVE ( 'NONE', #15, #15, #243, .T. ) ;
#72 = DATE_AND_TIME ( #186, #59 ) ;
#73 = ORIENTED_EDGE ( 'NONE', *, *, #183, .F. ) ;
#74 = DIRECTION ( 'NONE',  ( 3.491481338843133355E-15, -0.0000000000000000000, 1.000000000000000000 ) ) ;
#75 = ADVANCED_FACE ( 'NONE', ( #95, #9 ), #37, .T. ) ;
#76 = FACE_OUTER_BOUND ( 'NONE', #109, .T. ) ;
#77 = CIRCLE ( 'NONE', #30, 3.000000000000002220 ) ;
#78 = CYLINDRICAL_SURFACE ( 'NONE', #128, 1.999999999999999556 ) ;
#79 = CYLINDRICAL_SURFACE ( 'NONE', #34, 3.000000000000000888 ) ;
#80 = PRODUCT_RELATED_PRODUCT_CATEGORY ( 'detail', '', ( #52 ) ) ;
#81 = CARTESIAN_POINT ( 'NONE',  ( 1.902857329669507616E-13, 2.999999999999995559, 54.50000000000000000 ) ) ;
#82 = DIRECTION ( 'NONE',  ( -3.491481338843133355E-15, 1.224646799147353207E-16, -1.000000000000000000 ) ) ;
#83 = ADVANCED_FACE ( 'NONE', ( #150 ), #91, .T. ) ;
#84 = CARTESIAN_POINT ( 'NONE',  ( -2.565498867538175514E-30, 0.0000000000000000000, -7.347880794884119736E-16 ) ) ;
#85 = DATE_AND_TIME ( #227, #188 ) ;
#86 = PERSON_AND_ORGANIZATION_ROLE ( 'design_owner' ) ;
#87 = ORIENTED_EDGE ( 'NONE', *, *, #194, .F. ) ;
#88 = COORDINATED_UNIVERSAL_TIME_OFFSET ( 1, 0, .AHEAD. ) ;
#89 = CARTESIAN_POINT ( 'NONE',  ( 0.0000000000000000000, 0.0000000000000000000, 0.0000000000000000000 ) ) ;
#90 = DIRECTION ( 'NONE',  ( -4.275831445896958607E-31, -1.000000000000000000, -1.224646799147353207E-16 ) ) ;
#91 = PLANE ( 'NONE',  #135 ) ;
#92 = CIRCLE ( 'NONE', #241, 3.000000000000000888 ) ;
#93 = FACE_OUTER_BOUND ( 'NONE', #180, .T. ) ;
#94 = EDGE_CURVE ( 'NONE', #49, #49, #158, .T. ) ;
#95 = FACE_BOUND ( 'NONE', #225, .T. ) ;
#96 = CLOSED_SHELL ( 'NONE', ( #171, #75, #239, #27, #141, #129 ) ) ;
#97 = FACE_OUTER_BOUND ( 'NONE', #70, .T. ) ;
#98 = DIRECTION ( 'NONE',  ( -3.491481338843133355E-15, 1.224646799147353207E-16, -1.000000000000000000 ) ) ;
#99 = APPROVAL_PERSON_ORGANIZATION ( #210, #102, #54 ) ;
#100 = VERTEX_POINT ( 'NONE', #237 ) ;
#101 = APPLICATION_PROTOCOL_DEFINITION ( 'international standard', 'config_control_design', 1994, #138 ) ;
#102 = APPROVAL ( #126, 'UNSPECIFIED' ) ;
#103 = TOROIDAL_SURFACE ( 'NONE', #19, 4.000000000000000000, 2.000000000000000000 ) ;
#104 = CIRCLE ( 'NONE', #197, 2.499999999999998668 ) ;
#105 = PERSON_AND_ORGANIZATION_ROLE ( 'creator' ) ;
#106 = EDGE_LOOP ( 'NONE', ( #41 ) ) ;
#107 = APPLICATION_CONTEXT ( 'configuration controlled 3d designs of mechanical parts and assemblies' ) ;
#108 = PERSON_AND_ORGANIZATION ( #167, #173 ) ;
#109 = EDGE_LOOP ( 'NONE', ( #24 ) ) ;
#110 = SHAPE_DEFINITION_REPRESENTATION ( #223, #205 ) ;
#111 = LOCAL_TIME ( 8, 42, 1.000000000000000000, #88 ) ;
#112 = CARTESIAN_POINT ( 'NONE',  ( 2.897929511239800685E-14, 0.0000000000000000000, 8.300000000000000711 ) ) ;
#113 = CARTESIAN_POINT ( 'NONE',  ( 1.902857329669507616E-13, -6.674325055353075041E-15, 54.50000000000000000 ) ) ;
#114 = CARTESIAN_POINT ( 'NONE',  ( 6.898977684019953804E-14, 0.0000000000000000000, 19.75945741788171617 ) ) ;
#115 = CC_DESIGN_PERSON_AND_ORGANIZATION_ASSIGNMENT ( #6, #147, ( #16 ) ) ;
#116 = DIRECTION ( 'NONE',  ( 4.275831445896958607E-31, 1.000000000000000000, 1.224646799147353207E-16 ) ) ;
#117 = CLOSED_SHELL ( 'NONE', ( #83, #65, #39 ) ) ;
#118 = CARTESIAN_POINT ( 'NONE',  ( 3.078661884462325850E-14, 0.0000000000000000000, 8.817638090205026202 ) ) ;
#119 = CARTESIAN_POINT ( 'NONE',  ( 2.068148347421890243, 0.0000000000000000000, 8.817638090205019097 ) ) ;
#120 = CIRCLE ( 'NONE', #11, 2.068148347421859601 ) ;
#121 = APPROVAL_PERSON_ORGANIZATION ( #130, #13, #181 ) ;
#122 = CARTESIAN_POINT ( 'NONE',  ( 0.0000000000000000000, 0.0000000000000000000, 0.0000000000000000000 ) ) ;
#123 = CC_DESIGN_DATE_AND_TIME_ASSIGNMENT ( #85, #56, ( #1 ) ) ;
#124 = APPROVAL_STATUS ( 'not_yet_approved' ) ;
#125 = AXIS2_PLACEMENT_3D ( 'NONE', #114, #232, #61 ) ;
#126 = APPROVAL_STATUS ( 'not_yet_approved' ) ;
#127 = ORIENTED_EDGE ( 'NONE', *, *, #71, .T. ) ;
#128 = AXIS2_PLACEMENT_3D ( 'NONE', #89, #74, #134 ) ;
#129 = ADVANCED_FACE ( 'NONE', ( #175 ), #169, .F. ) ;
#130 = PERSON_AND_ORGANIZATION ( #167, #173 ) ;
#131 = EDGE_LOOP ( 'NONE', ( #38 ) ) ;
#132 = DIRECTION ( 'NONE',  ( 1.000000000000000000, 0.0000000000000000000, -3.469446951953615767E-15 ) ) ;
#133 = EDGE_LOOP ( 'NONE', ( #87 ) ) ;
#134 = DIRECTION ( 'NONE',  ( 1.000000000000000000, 0.0000000000000000000, -3.491481338843133355E-15 ) ) ;
#135 = AXIS2_PLACEMENT_3D ( 'NONE', #10, #153, #90 ) ;
#136 = PLANE ( 'NONE',  #159 ) ;
#137 =( LENGTH_UNIT ( ) NAMED_UNIT ( * ) SI_UNIT ( .MILLI., .METRE. ) );
#138 = APPLICATION_CONTEXT ( 'configuration controlled 3d designs of mechanical parts and assemblies' ) ;
#139 = DESIGN_CONTEXT ( 'detailed design', #107, 'design' ) ;
#140 = DIRECTION ( 'NONE',  ( 1.000000000000000000, 0.0000000000000000000, -3.355123878109231823E-15 ) ) ;
#141 = ADVANCED_FACE ( 'NONE', ( #14, #28 ), #20, .T. ) ;
#142 = LOCAL_TIME ( 8, 42, 1.000000000000000000, #5 ) ;
#143 = EDGE_CURVE ( 'NONE', #157, #157, #92, .T. ) ;
#144 = APPROVAL_STATUS ( 'not_yet_approved' ) ;
#145 = EDGE_LOOP ( 'NONE', ( #203 ) ) ;
#146 = COORDINATED_UNIVERSAL_TIME_OFFSET ( 1, 0, .AHEAD. ) ;
#147 = PERSON_AND_ORGANIZATION_ROLE ( 'design_supplier' ) ;
#148 = ORIENTED_EDGE ( 'NONE', *, *, #218, .T. ) ;
#149 = CC_DESIGN_DATE_AND_TIME_ASSIGNMENT ( #184, #187, ( #204 ) ) ;
#150 = FACE_OUTER_BOUND ( 'NONE', #4, .T. ) ;
#151 = CARTESIAN_POINT ( 'NONE',  ( -6.413747168845438786E-31, 2.249639673992786412E-32, -1.836970198721029934E-16 ) ) ;
#152 = CC_DESIGN_APPROVAL ( #13, ( #1 ) ) ;
#153 = DIRECTION ( 'NONE',  ( 3.491481338843133355E-15, -1.224646799147353207E-16, 1.000000000000000000 ) ) ;
#154 = CARTESIAN_POINT ( 'NONE',  ( 0.0000000000000000000, 0.0000000000000000000, 0.0000000000000000000 ) ) ;
#155 = CARTESIAN_POINT ( 'NONE',  ( 1.920314736363723724E-13, -6.735557395310444193E-15, 55.00000000000000711 ) ) ;
#156 = CARTESIAN_POINT ( 'NONE',  ( 3.000000000000043965, 0.0000000000000000000, 12.29535580274375661 ) ) ;
#157 = VERTEX_POINT ( 'NONE', #156 ) ;
#158 = CIRCLE ( 'NONE', #29, 1.999999999999999112 ) ;
#159 = AXIS2_PLACEMENT_3D ( 'NONE', #17, #82, #217 ) ;
#160 = AXIS2_PLACEMENT_3D ( 'NONE', #213, #214, #48 ) ;
#161 = ORIENTED_EDGE ( 'NONE', *, *, #71, .F. ) ;
#162 = COORDINATED_UNIVERSAL_TIME_OFFSET ( 1, 0, .AHEAD. ) ;
#163 = CALENDAR_DATE ( 2021, 15, 11 ) ;
#164 = CC_DESIGN_PERSON_AND_ORGANIZATION_ASSIGNMENT ( #3, #86, ( #52 ) ) ;
#165 = APPROVAL_DATE_TIME ( #40, #235 ) ;
#166 = EDGE_LOOP ( 'NONE', ( #207 ) ) ;
#167 = PERSON ( 'UNSPECIFIED', 'UNSPECIFIED', 'UNSPECIFIED', ('UNSPECIFIED'), ('UNSPECIFIED'), ('UNSPECIFIED') ) ;
#168 = SECURITY_CLASSIFICATION_LEVEL ( 'unclassified' ) ;
#169 = PLANE ( 'NONE',  #219 ) ;
#170 = DIRECTION ( 'NONE',  ( 1.000000000000000000, 0.0000000000000000000, -3.491481338843133355E-15 ) ) ;
#171 = ADVANCED_FACE ( 'NONE', ( #31, #174 ), #79, .T. ) ;
#172 = ORIENTED_EDGE ( 'NONE', *, *, #218, .F. ) ;
#173 = ORGANIZATION ( 'UNSPECIFIED', 'UNSPECIFIED', '' ) ;
#174 = FACE_OUTER_BOUND ( 'NONE', #145, .T. ) ;
#175 = FACE_OUTER_BOUND ( 'NONE', #106, .T. ) ;
#176 = CARTESIAN_POINT ( 'NONE',  ( 2.000000000000028422, 0.0000000000000000000, 8.299999999999993605 ) ) ;
#177 = DIRECTION ( 'NONE',  ( 4.275831445896958607E-31, 1.000000000000000000, 1.224646799147353207E-16 ) ) ;
#178 =( NAMED_UNIT ( * ) PLANE_ANGLE_UNIT ( ) SI_UNIT ( $, .RADIAN. ) );
#179 = VERTEX_POINT ( 'NONE', #196 ) ;
#180 = EDGE_LOOP ( 'NONE', ( #2 ) ) ;
#181 = APPROVAL_ROLE ( '' ) ;
#182 = EDGE_LOOP ( 'NONE', ( #62 ) ) ;
#183 = EDGE_CURVE ( 'NONE', #64, #64, #77, .T. ) ;
#184 = DATE_AND_TIME ( #163, #142 ) ;
#185 = CC_DESIGN_PERSON_AND_ORGANIZATION_ASSIGNMENT ( #108, #42, ( #204 ) ) ;
#186 = CALENDAR_DATE ( 2021, 15, 11 ) ;
#187 = DATE_TIME_ROLE ( 'creation_date' ) ;
#188 = LOCAL_TIME ( 8, 42, 1.000000000000000000, #146 ) ;
#189 = EDGE_LOOP ( 'NONE', ( #228 ) ) ;
#190 = FACE_OUTER_BOUND ( 'NONE', #166, .T. ) ;
#191 = DIRECTION ( 'NONE',  ( 3.491481338843133355E-15, -0.0000000000000000000, 1.000000000000000000 ) ) ;
#192 = DIRECTION ( 'NONE',  ( 1.000000000000000000, 0.0000000000000000000, -3.469446951953613006E-15 ) ) ;
#193 = DIRECTION ( 'NONE',  ( -3.491481338843133355E-15, 1.224646799147353207E-16, -1.000000000000000000 ) ) ;
#194 = EDGE_CURVE ( 'NONE', #100, #100, #58, .T. ) ;
#195 = AXIS2_PLACEMENT_3D ( 'NONE', #151, #47, #116 ) ;
#196 = CARTESIAN_POINT ( 'NONE',  ( 1.920314736363723724E-13, 2.499999999999992006, 55.00000000000000711 ) ) ;
#197 = AXIS2_PLACEMENT_3D ( 'NONE', #155, #221, #66 ) ;
#198 = VERTEX_POINT ( 'NONE', #119 ) ;
#199 = DIRECTION ( 'NONE',  ( 0.0000000000000000000, 0.0000000000000000000, 1.000000000000000000 ) ) ;
#200 = COORDINATED_UNIVERSAL_TIME_OFFSET ( 1, 0, .AHEAD. ) ;
#201 = APPROVAL_PERSON_ORGANIZATION ( #69, #235, #22 ) ;
#202 = DATE_AND_TIME ( #8, #21 ) ;
#203 = ORIENTED_EDGE ( 'NONE', *, *, #143, .T. ) ;
#204 = PRODUCT_DEFINITION ( 'UNKNOWN', '', #16, #139 ) ;
#205 = ADVANCED_BREP_SHAPE_REPRESENTATION ( '334903', ( #46, #209, #67 ), #51 ) ;
#206 = APPROVAL_DATE_TIME ( #72, #102 ) ;
#207 = ORIENTED_EDGE ( 'NONE', *, *, #194, .T. ) ;
#208 = PERSON_AND_ORGANIZATION_ROLE ( 'classification_officer' ) ;
#209 = MANIFOLD_SOLID_BREP ( 'Corps-Déplacer/Copier1[2]', #117 ) ;
#210 = PERSON_AND_ORGANIZATION ( #167, #173 ) ;
#211 = DIRECTION ( 'NONE',  ( 3.491481338843133355E-15, -0.0000000000000000000, 1.000000000000000000 ) ) ;
#212 = CARTESIAN_POINT ( 'NONE',  ( 2.897929511239800685E-14, 2.249639673992785043E-32, 8.300000000000000711 ) ) ;
#213 = CARTESIAN_POINT ( 'NONE',  ( 2.897929511239800685E-14, 0.0000000000000000000, 8.300000000000000711 ) ) ;
#214 = DIRECTION ( 'NONE',  ( 3.491481338843133355E-15, -0.0000000000000000000, 1.000000000000000000 ) ) ;
#215 = DIRECTION ( 'NONE',  ( -3.491481338843133355E-15, 1.224646799147353207E-16, -1.000000000000000000 ) ) ;
#216 = CARTESIAN_POINT ( 'NONE',  ( 1.902857329669507616E-13, -6.674325055353075041E-15, 54.50000000000000000 ) ) ;
#217 = DIRECTION ( 'NONE',  ( 4.275831445896958607E-31, 1.000000000000000000, 1.224646799147353207E-16 ) ) ;
#218 = EDGE_CURVE ( 'NONE', #179, #179, #104, .T. ) ;
#219 = AXIS2_PLACEMENT_3D ( 'NONE', #212, #229, #45 ) ;
#220 = MECHANICAL_CONTEXT ( 'NONE', #138, 'mechanical' ) ;
#221 = DIRECTION ( 'NONE',  ( -3.491481338843133355E-15, 1.224646799147353207E-16, -1.000000000000000000 ) ) ;
#222 = CC_DESIGN_APPROVAL ( #235, ( #204 ) ) ;
#223 = PRODUCT_DEFINITION_SHAPE ( 'NONE', 'NONE',  #204 ) ;
#224 = CALENDAR_DATE ( 2021, 15, 11 ) ;
#225 = EDGE_LOOP ( 'NONE', ( #148 ) ) ;
#226 = PERSON_AND_ORGANIZATION ( #167, #173 ) ;
#227 = CALENDAR_DATE ( 2021, 15, 11 ) ;
#228 = ORIENTED_EDGE ( 'NONE', *, *, #233, .T. ) ;
#229 = DIRECTION ( 'NONE',  ( 3.491481338843133355E-15, -1.224646799147353207E-16, 1.000000000000000000 ) ) ;
#230 = AXIS2_PLACEMENT_3D ( 'NONE', #84, #242, #50 ) ;
#231 = FACE_OUTER_BOUND ( 'NONE', #133, .T. ) ;
#232 = DIRECTION ( 'NONE',  ( 3.491481338843133355E-15, -0.0000000000000000000, 1.000000000000000000 ) ) ;
#233 = EDGE_CURVE ( 'NONE', #198, #198, #120, .T. ) ;
#234 = DIRECTION ( 'NONE',  ( 0.0000000000000000000, 1.000000000000000000, 0.0000000000000000000 ) ) ;
#235 = APPROVAL ( #144, 'UNSPECIFIED' ) ;
#236 = AXIS2_PLACEMENT_3D ( 'NONE', #113, #193, #234 ) ;
#237 = CARTESIAN_POINT ( 'NONE',  ( 2.000000000000000000, 0.0000000000000000000, -7.717750757174679177E-15 ) ) ;
#238 = UNCERTAINTY_MEASURE_WITH_UNIT (LENGTH_MEASURE( 1.000000000000000082E-05 ), #137, 'distance_accuracy_value', 'NONE');
#239 = ADVANCED_FACE ( 'NONE', ( #97 ), #136, .F. ) ;
#240 = DIRECTION ( 'NONE',  ( 3.491481338843133355E-15, -0.0000000000000000000, 1.000000000000000000 ) ) ;
#241 = AXIS2_PLACEMENT_3D ( 'NONE', #57, #211, #192 ) ;
#242 = DIRECTION ( 'NONE',  ( 3.491481338843133355E-15, -0.0000000000000000000, 1.000000000000000000 ) ) ;
#243 = CIRCLE ( 'NONE', #160, 1.999999999999999112 ) ;
ENDSEC;
END-ISO-10303-21;
