ISO-10303-21;
HEADER;
FILE_DESCRIPTION (( 'STEP AP203' ),
    '1' );
FILE_NAME ('334902.step',
    '2021-11-15T07:42:00',
    ( '' ),
    ( '' ),
    'SwSTEP 2.0',
    'SolidWorks 2019',
    '' );
FILE_SCHEMA (( 'CONFIG_CONTROL_DESIGN' ));
ENDSEC;

DATA;
#1 = DATE_AND_TIME ( #158, #204 ) ;
#2 = CYLINDRICAL_SURFACE ( 'NONE', #224, 1.499999999999999778 ) ;
#3 = APPROVAL_DATE_TIME ( #51, #12 ) ;
#4 = DIRECTION ( 'NONE',  ( 3.491481338843133355E-15, -0.0000000000000000000, 1.000000000000000000 ) ) ;
#5 = FACE_OUTER_BOUND ( 'NONE', #120, .T. ) ;
#6 = CC_DESIGN_APPROVAL ( #12, ( #163 ) ) ;
#7 = DIRECTION ( 'NONE',  ( 4.275831445896958607E-31, 1.000000000000000000, 1.224646799147353207E-16 ) ) ;
#8 = FACE_OUTER_BOUND ( 'NONE', #194, .T. ) ;
#9 =( NAMED_UNIT ( * ) SI_UNIT ( $, .STERADIAN. ) SOLID_ANGLE_UNIT ( ) );
#10 = ADVANCED_BREP_SHAPE_REPRESENTATION ( '334902', ( #147, #64, #118 ), #141 ) ;
#11 = CIRCLE ( 'NONE', #90, 1.499999999999999112 ) ;
#12 = APPROVAL ( #73, 'UNSPECIFIED' ) ;
#13 = DIRECTION ( 'NONE',  ( 3.491481338843133355E-15, -0.0000000000000000000, 1.000000000000000000 ) ) ;
#14 = CARTESIAN_POINT ( 'NONE',  ( 1.902857329669507616E-13, 2.999999999999995559, 54.50000000000000000 ) ) ;
#15 =( NAMED_UNIT ( * ) PLANE_ANGLE_UNIT ( ) SI_UNIT ( $, .RADIAN. ) );
#16 = CIRCLE ( 'NONE', #46, 3.000000000000002220 ) ;
#17 = PERSON_AND_ORGANIZATION ( #162, #237 ) ;
#18 = PERSON_AND_ORGANIZATION ( #162, #237 ) ;
#19 = DATE_AND_TIME ( #37, #137 ) ;
#20 = TOROIDAL_SURFACE ( 'NONE', #242, 3.499999999999998668, 1.999999999999999556 ) ;
#21 = APPLICATION_CONTEXT ( 'configuration controlled 3d designs of mechanical parts and assemblies' ) ;
#22 = PRODUCT_RELATED_PRODUCT_CATEGORY ( 'detail', '', ( #103 ) ) ;
#23 = DIRECTION ( 'NONE',  ( -3.491481338843133355E-15, 1.224646799147353207E-16, -1.000000000000000000 ) ) ;
#24 = CIRCLE ( 'NONE', #232, 1.500000000000000444 ) ;
#25 = APPROVAL_ROLE ( '' ) ;
#26 = DIRECTION ( 'NONE',  ( 3.491481338843133355E-15, -0.0000000000000000000, 1.000000000000000000 ) ) ;
#27 = CARTESIAN_POINT ( 'NONE',  ( 4.246123553715099226E-14, 0.0000000000000000000, 12.16138120652825449 ) ) ;
#28 = PLANE ( 'NONE',  #225 ) ;
#29 = SECURITY_CLASSIFICATION ( '', '', #179 ) ;
#30 = DIRECTION ( 'NONE',  ( 1.000000000000000000, 0.0000000000000000000, -3.491481338843133355E-15 ) ) ;
#31 = DIRECTION ( 'NONE',  ( 4.275831445896958607E-31, 1.000000000000000000, 1.224646799147353207E-16 ) ) ;
#32 = ADVANCED_FACE ( 'NONE', ( #164, #129 ), #210, .T. ) ;
#33 = VERTEX_POINT ( 'NONE', #170 ) ;
#34 = DIRECTION ( 'NONE',  ( 1.000000000000000000, 0.0000000000000000000, -3.318672264959132994E-15 ) ) ;
#35 = DIRECTION ( 'NONE',  ( 3.491481338843133355E-15, -1.224646799147353207E-16, 1.000000000000000000 ) ) ;
#36 = CLOSED_SHELL ( 'NONE', ( #182, #32, #166, #113, #143, #192 ) ) ;
#37 = CALENDAR_DATE ( 2021, 15, 11 ) ;
#38 = ORIENTED_EDGE ( 'NONE', *, *, #213, .F. ) ;
#39 = PERSON_AND_ORGANIZATION_ROLE ( 'creator' ) ;
#40 = ORIENTED_EDGE ( 'NONE', *, *, #102, .T. ) ;
#41 = CC_DESIGN_PERSON_AND_ORGANIZATION_ASSIGNMENT ( #99, #139, ( #29 ) ) ;
#42 = LOCAL_TIME ( 8, 42, 0.0000000000000000000, #57 ) ;
#43 = ADVANCED_FACE ( 'NONE', ( #5, #138 ), #2, .T. ) ;
#44 = DIRECTION ( 'NONE',  ( 4.275831445896958607E-31, 1.000000000000000000, 1.224646799147353207E-16 ) ) ;
#45 = CARTESIAN_POINT ( 'NONE',  ( 6.852200703763403523E-14, 0.0000000000000000000, 19.62548282166620695 ) ) ;
#46 = AXIS2_PLACEMENT_3D ( 'NONE', #227, #112, #67 ) ;
#47 = DIRECTION ( 'NONE',  ( -3.491481338843133355E-15, 1.224646799147353207E-16, -1.000000000000000000 ) ) ;
#48 = ADVANCED_FACE ( 'NONE', ( #205 ), #28, .T. ) ;
#49 = ORIENTED_EDGE ( 'NONE', *, *, #213, .T. ) ;
#50 = CARTESIAN_POINT ( 'NONE',  ( 2.199633243471174014E-14, 0.0000000000000000000, 6.299999999999999822 ) ) ;
#51 = DATE_AND_TIME ( #148, #176 ) ;
#52 = APPROVAL ( #119, 'UNSPECIFIED' ) ;
#53 = DIRECTION ( 'NONE',  ( 0.0000000000000000000, 0.0000000000000000000, 1.000000000000000000 ) ) ;
#54 = PERSON_AND_ORGANIZATION_ROLE ( 'design_owner' ) ;
#55 = AXIS2_PLACEMENT_3D ( 'NONE', #27, #165, #183 ) ;
#56 = APPLICATION_PROTOCOL_DEFINITION ( 'international standard', 'config_control_design', 1994, #149 ) ;
#57 = COORDINATED_UNIVERSAL_TIME_OFFSET ( 1, 0, .AHEAD. ) ;
#58 = AXIS2_PLACEMENT_3D ( 'NONE', #45, #26, #72 ) ;
#59 = EDGE_LOOP ( 'NONE', ( #181 ) ) ;
#60 = UNCERTAINTY_MEASURE_WITH_UNIT (LENGTH_MEASURE( 1.000000000000000082E-05 ), #189, 'distance_accuracy_value', 'NONE');
#61 = PERSON_AND_ORGANIZATION ( #162, #237 ) ;
#62 = ADVANCED_FACE ( 'NONE', ( #211 ), #199, .T. ) ;
#63 = AXIS2_PLACEMENT_3D ( 'NONE', #69, #47, #184 ) ;
#64 = MANIFOLD_SOLID_BREP ( 'Corps-Déplacer/Copier1[2]', #168 ) ;
#65 = CARTESIAN_POINT ( 'NONE',  ( 0.0000000000000000000, 0.0000000000000000000, 0.0000000000000000000 ) ) ;
#66 = APPROVAL_ROLE ( '' ) ;
#67 = DIRECTION ( 'NONE',  ( 0.0000000000000000000, 1.000000000000000000, 0.0000000000000000000 ) ) ;
#68 = DATE_AND_TIME ( #122, #42 ) ;
#69 = CARTESIAN_POINT ( 'NONE',  ( 1.920314736363723724E-13, -6.735557395310444193E-15, 55.00000000000000711 ) ) ;
#70 = PRODUCT_DEFINITION_FORMATION_WITH_SPECIFIED_SOURCE ( 'ANY', '', #103, .NOT_KNOWN. ) ;
#71 = CC_DESIGN_PERSON_AND_ORGANIZATION_ASSIGNMENT ( #18, #196, ( #70 ) ) ;
#72 = DIRECTION ( 'NONE',  ( 1.000000000000000000, 0.0000000000000000000, -3.469446951953614189E-15 ) ) ;
#73 = APPROVAL_STATUS ( 'not_yet_approved' ) ;
#74 = CIRCLE ( 'NONE', #79, 1.568148347421858713 ) ;
#75 = VERTEX_POINT ( 'NONE', #169 ) ;
#76 = VERTEX_POINT ( 'NONE', #96 ) ;
#77 = AXIS2_PLACEMENT_3D ( 'NONE', #93, #95, #31 ) ;
#78 = CARTESIAN_POINT ( 'NONE',  ( 2.380365616693699179E-14, 0.0000000000000000000, 6.817638090205026202 ) ) ;
#79 = AXIS2_PLACEMENT_3D ( 'NONE', #78, #190, #34 ) ;
#80 = APPROVAL_STATUS ( 'not_yet_approved' ) ;
#81 = EDGE_LOOP ( 'NONE', ( #136 ) ) ;
#82 = DESIGN_CONTEXT ( 'detailed design', #21, 'design' ) ;
#83 = CIRCLE ( 'NONE', #55, 3.000000000000000888 ) ;
#84 = EDGE_LOOP ( 'NONE', ( #125 ) ) ;
#85 = PERSON_AND_ORGANIZATION ( #162, #237 ) ;
#86 = CARTESIAN_POINT ( 'NONE',  ( -2.565498867538175514E-30, 0.0000000000000000000, -7.347880794884119736E-16 ) ) ;
#87 = DATE_TIME_ROLE ( 'creation_date' ) ;
#88 = DIRECTION ( 'NONE',  ( 1.000000000000000000, 0.0000000000000000000, -3.491481338843133355E-15 ) ) ;
#89 = FACE_OUTER_BOUND ( 'NONE', #104, .T. ) ;
#90 = AXIS2_PLACEMENT_3D ( 'NONE', #128, #203, #142 ) ;
#91 = DIRECTION ( 'NONE',  ( 3.491481338843133355E-15, -1.224646799147353207E-16, 1.000000000000000000 ) ) ;
#92 = FACE_OUTER_BOUND ( 'NONE', #84, .T. ) ;
#93 = CARTESIAN_POINT ( 'NONE',  ( 0.0000000000000000000, 0.0000000000000000000, 0.0000000000000000000 ) ) ;
#94 = AXIS2_PLACEMENT_3D ( 'NONE', #206, #35, #220 ) ;
#95 = DIRECTION ( 'NONE',  ( -3.491481338843133355E-15, 1.224646799147353207E-16, -1.000000000000000000 ) ) ;
#96 = CARTESIAN_POINT ( 'NONE',  ( 1.568148347421882693, 0.0000000000000000000, 6.817638090205021761 ) ) ;
#97 = FACE_OUTER_BOUND ( 'NONE', #188, .T. ) ;
#98 = DIRECTION ( 'NONE',  ( 1.000000000000000000, 0.0000000000000000000, 0.0000000000000000000 ) ) ;
#99 = PERSON_AND_ORGANIZATION ( #162, #237 ) ;
#100 = APPROVAL_DATE_TIME ( #126, #52 ) ;
#101 = APPROVAL_PERSON_ORGANIZATION ( #61, #52, #66 ) ;
#102 = EDGE_CURVE ( 'NONE', #152, #152, #24, .T. ) ;
#103 = PRODUCT ( '334902', '334902', '', ( #116 ) ) ;
#104 = EDGE_LOOP ( 'NONE', ( #230 ) ) ;
#105 = COORDINATED_UNIVERSAL_TIME_OFFSET ( 1, 0, .AHEAD. ) ;
#106 = DIRECTION ( 'NONE',  ( 3.491481338843133355E-15, -0.0000000000000000000, 1.000000000000000000 ) ) ;
#107 = EDGE_CURVE ( 'NONE', #221, #221, #11, .T. ) ;
#108 = ORIENTED_EDGE ( 'NONE', *, *, #117, .T. ) ;
#109 = EDGE_LOOP ( 'NONE', ( #198 ) ) ;
#110 = CARTESIAN_POINT ( 'NONE',  ( 1.920314736363723724E-13, -8.310224236210339646E-31, 55.00000000000000711 ) ) ;
#111 = AXIS2_PLACEMENT_3D ( 'NONE', #216, #23, #44 ) ;
#112 = DIRECTION ( 'NONE',  ( -3.491481338843133355E-15, 1.224646799147353207E-16, -1.000000000000000000 ) ) ;
#113 = ADVANCED_FACE ( 'NONE', ( #228, #8 ), #20, .F. ) ;
#114 = CARTESIAN_POINT ( 'NONE',  ( 0.0000000000000000000, 0.0000000000000000000, 0.0000000000000000000 ) ) ;
#115 = CC_DESIGN_PERSON_AND_ORGANIZATION_ASSIGNMENT ( #17, #54, ( #103 ) ) ;
#116 = MECHANICAL_CONTEXT ( 'NONE', #149, 'mechanical' ) ;
#117 = EDGE_CURVE ( 'NONE', #131, #131, #16, .T. ) ;
#118 = AXIS2_PLACEMENT_3D ( 'NONE', #114, #53, #98 ) ;
#119 = APPROVAL_STATUS ( 'not_yet_approved' ) ;
#120 = EDGE_LOOP ( 'NONE', ( #40 ) ) ;
#121 = ORIENTED_EDGE ( 'NONE', *, *, #235, .T. ) ;
#122 = CALENDAR_DATE ( 2021, 15, 11 ) ;
#123 = APPROVAL_PERSON_ORGANIZATION ( #231, #12, #233 ) ;
#124 = DIRECTION ( 'NONE',  ( -4.275831445896958607E-31, -1.000000000000000000, -1.224646799147353207E-16 ) ) ;
#125 = ORIENTED_EDGE ( 'NONE', *, *, #145, .F. ) ;
#126 = DATE_AND_TIME ( #174, #229 ) ;
#127 = ORIENTED_EDGE ( 'NONE', *, *, #102, .F. ) ;
#128 = CARTESIAN_POINT ( 'NONE',  ( 2.199633243471174014E-14, 0.0000000000000000000, 6.299999999999999822 ) ) ;
#129 = FACE_OUTER_BOUND ( 'NONE', #109, .T. ) ;
#130 = CARTESIAN_POINT ( 'NONE',  ( 1.500000000000021094, 0.0000000000000000000, 6.299999999999994493 ) ) ;
#131 = VERTEX_POINT ( 'NONE', #14 ) ;
#132 = CC_DESIGN_APPROVAL ( #52, ( #70 ) ) ;
#133 = CARTESIAN_POINT ( 'NONE',  ( 2.199633243471174014E-14, 0.0000000000000000000, 6.299999999999999822 ) ) ;
#134 = COORDINATED_UNIVERSAL_TIME_OFFSET ( 1, 0, .AHEAD. ) ;
#135 = AXIS2_PLACEMENT_3D ( 'NONE', #133, #13, #238 ) ;
#136 = ORIENTED_EDGE ( 'NONE', *, *, #151, .T. ) ;
#137 = LOCAL_TIME ( 8, 42, 0.0000000000000000000, #134 ) ;
#138 = FACE_OUTER_BOUND ( 'NONE', #154, .T. ) ;
#139 = PERSON_AND_ORGANIZATION_ROLE ( 'classification_officer' ) ;
#140 = DIRECTION ( 'NONE',  ( -3.491481338843133355E-15, 1.224646799147353207E-16, -1.000000000000000000 ) ) ;
#141 =( GEOMETRIC_REPRESENTATION_CONTEXT ( 3 ) GLOBAL_UNCERTAINTY_ASSIGNED_CONTEXT ( ( #60 ) ) GLOBAL_UNIT_ASSIGNED_CONTEXT ( ( #189, #15, #9 ) ) REPRESENTATION_CONTEXT ( 'NONE', 'WORKASPACE' ) );
#142 = DIRECTION ( 'NONE',  ( 1.000000000000000000, 0.0000000000000000000, -3.469446951953616161E-15 ) ) ;
#143 = ADVANCED_FACE ( 'NONE', ( #92, #202 ), #178, .T. ) ;
#144 = PLANE ( 'NONE',  #197 ) ;
#145 = EDGE_CURVE ( 'NONE', #75, #75, #83, .T. ) ;
#146 = ORIENTED_EDGE ( 'NONE', *, *, #107, .F. ) ;
#147 = MANIFOLD_SOLID_BREP ( 'Corps-Déplacer/Copier1[1]', #36 ) ;
#148 = CALENDAR_DATE ( 2021, 15, 11 ) ;
#149 = APPLICATION_CONTEXT ( 'configuration controlled 3d designs of mechanical parts and assemblies' ) ;
#150 = COORDINATED_UNIVERSAL_TIME_OFFSET ( 1, 0, .AHEAD. ) ;
#151 = EDGE_CURVE ( 'NONE', #153, #153, #186, .T. ) ;
#152 = VERTEX_POINT ( 'NONE', #207 ) ;
#153 = VERTEX_POINT ( 'NONE', #222 ) ;
#154 = EDGE_LOOP ( 'NONE', ( #146 ) ) ;
#155 = APPROVAL_DATE_TIME ( #1, #195 ) ;
#156 = CC_DESIGN_PERSON_AND_ORGANIZATION_ASSIGNMENT ( #241, #39, ( #163 ) ) ;
#157 = CC_DESIGN_SECURITY_CLASSIFICATION ( #29, ( #70 ) ) ;
#158 = CALENDAR_DATE ( 2021, 15, 11 ) ;
#159 = DIRECTION ( 'NONE',  ( 1.000000000000000000, 0.0000000000000000000, -3.491481338843133355E-15 ) ) ;
#160 = EDGE_LOOP ( 'NONE', ( #121 ) ) ;
#161 = EDGE_LOOP ( 'NONE', ( #49 ) ) ;
#162 = PERSON ( 'UNSPECIFIED', 'UNSPECIFIED', 'UNSPECIFIED', ('UNSPECIFIED'), ('UNSPECIFIED'), ('UNSPECIFIED') ) ;
#163 = PRODUCT_DEFINITION ( 'UNKNOWN', '', #70, #82 ) ;
#164 = FACE_BOUND ( 'NONE', #81, .T. ) ;
#165 = DIRECTION ( 'NONE',  ( 3.491481338843133355E-15, -0.0000000000000000000, 1.000000000000000000 ) ) ;
#166 = ADVANCED_FACE ( 'NONE', ( #89 ), #144, .F. ) ;
#167 = APPLICATION_PROTOCOL_DEFINITION ( 'international standard', 'config_control_design', 1994, #21 ) ;
#168 = CLOSED_SHELL ( 'NONE', ( #48, #43, #62 ) ) ;
#169 = CARTESIAN_POINT ( 'NONE',  ( 3.000000000000043521, 0.0000000000000000000, 12.16138120652824561 ) ) ;
#170 = CARTESIAN_POINT ( 'NONE',  ( 1.500000000000021094, 0.0000000000000000000, 6.299999999999994493 ) ) ;
#171 = FACE_OUTER_BOUND ( 'NONE', #59, .T. ) ;
#172 = APPROVAL_PERSON_ORGANIZATION ( #85, #195, #25 ) ;
#173 = EDGE_LOOP ( 'NONE', ( #175 ) ) ;
#174 = CALENDAR_DATE ( 2021, 15, 11 ) ;
#175 = ORIENTED_EDGE ( 'NONE', *, *, #107, .T. ) ;
#176 = LOCAL_TIME ( 8, 42, 0.0000000000000000000, #150 ) ;
#177 = EDGE_LOOP ( 'NONE', ( #127 ) ) ;
#178 = CONICAL_SURFACE ( 'NONE', #58, 5.000000000000000000, 0.2617993877991427465 ) ;
#179 = SECURITY_CLASSIFICATION_LEVEL ( 'unclassified' ) ;
#180 = PRODUCT_DEFINITION_SHAPE ( 'NONE', 'NONE',  #163 ) ;
#181 = ORIENTED_EDGE ( 'NONE', *, *, #235, .F. ) ;
#182 = ADVANCED_FACE ( 'NONE', ( #234, #97 ), #208, .T. ) ;
#183 = DIRECTION ( 'NONE',  ( 1.000000000000000000, 0.0000000000000000000, -3.469446951953613006E-15 ) ) ;
#184 = DIRECTION ( 'NONE',  ( 0.0000000000000000000, 1.000000000000000000, 0.0000000000000000000 ) ) ;
#185 = CC_DESIGN_DATE_AND_TIME_ASSIGNMENT ( #68, #193, ( #29 ) ) ;
#186 = CIRCLE ( 'NONE', #63, 2.499999999999998668 ) ;
#187 = DIRECTION ( 'NONE',  ( -3.491481338843133355E-15, 1.224646799147353207E-16, -1.000000000000000000 ) ) ;
#188 = EDGE_LOOP ( 'NONE', ( #243 ) ) ;
#189 =( LENGTH_UNIT ( ) NAMED_UNIT ( * ) SI_UNIT ( .MILLI., .METRE. ) );
#190 = DIRECTION ( 'NONE',  ( 3.491481338843133355E-15, -0.0000000000000000000, 1.000000000000000000 ) ) ;
#191 = CC_DESIGN_APPROVAL ( #195, ( #29 ) ) ;
#192 = ADVANCED_FACE ( 'NONE', ( #171 ), #236, .F. ) ;
#193 = DATE_TIME_ROLE ( 'classification_date' ) ;
#194 = EDGE_LOOP ( 'NONE', ( #38 ) ) ;
#195 = APPROVAL ( #80, 'UNSPECIFIED' ) ;
#196 = PERSON_AND_ORGANIZATION_ROLE ( 'design_supplier' ) ;
#197 = AXIS2_PLACEMENT_3D ( 'NONE', #110, #187, #7 ) ;
#198 = ORIENTED_EDGE ( 'NONE', *, *, #117, .F. ) ;
#199 = PLANE ( 'NONE',  #111 ) ;
#200 = CARTESIAN_POINT ( 'NONE',  ( 2.199633243471174014E-14, 2.249639673992785317E-32, 6.299999999999999822 ) ) ;
#201 = COORDINATED_UNIVERSAL_TIME_OFFSET ( 1, 0, .AHEAD. ) ;
#202 = FACE_BOUND ( 'NONE', #161, .T. ) ;
#203 = DIRECTION ( 'NONE',  ( 3.491481338843133355E-15, -0.0000000000000000000, 1.000000000000000000 ) ) ;
#204 = LOCAL_TIME ( 8, 42, 0.0000000000000000000, #105 ) ;
#205 = FACE_OUTER_BOUND ( 'NONE', #173, .T. ) ;
#206 = CARTESIAN_POINT ( 'NONE',  ( 2.199633243471174014E-14, 2.249639673992785317E-32, 6.299999999999999822 ) ) ;
#207 = CARTESIAN_POINT ( 'NONE',  ( 1.500000000000000444, 0.0000000000000000000, -5.972010087753113288E-15 ) ) ;
#208 = CYLINDRICAL_SURFACE ( 'NONE', #77, 3.000000000000000888 ) ;
#209 = EDGE_LOOP ( 'NONE', ( #108 ) ) ;
#210 = CONICAL_SURFACE ( 'NONE', #219, 3.000000000000002220, 0.7853981633974445042 ) ;
#211 = FACE_OUTER_BOUND ( 'NONE', #177, .T. ) ;
#212 = DIRECTION ( 'NONE',  ( 3.491481338843133355E-15, -0.0000000000000000000, 1.000000000000000000 ) ) ;
#213 = EDGE_CURVE ( 'NONE', #76, #76, #74, .T. ) ;
#214 = CIRCLE ( 'NONE', #135, 1.499999999999999112 ) ;
#215 = DIRECTION ( 'NONE',  ( 0.0000000000000000000, 1.000000000000000000, 0.0000000000000000000 ) ) ;
#216 = CARTESIAN_POINT ( 'NONE',  ( -6.413747168845438786E-31, 2.249639673992786412E-32, -1.836970198721029934E-16 ) ) ;
#217 = CC_DESIGN_PERSON_AND_ORGANIZATION_ASSIGNMENT ( #240, #223, ( #70 ) ) ;
#218 = CARTESIAN_POINT ( 'NONE',  ( 1.902857329669507616E-13, -6.674325055353075041E-15, 54.50000000000000000 ) ) ;
#219 = AXIS2_PLACEMENT_3D ( 'NONE', #218, #140, #215 ) ;
#220 = DIRECTION ( 'NONE',  ( -4.275831445896958607E-31, -1.000000000000000000, -1.224646799147353207E-16 ) ) ;
#221 = VERTEX_POINT ( 'NONE', #130 ) ;
#222 = CARTESIAN_POINT ( 'NONE',  ( 1.920314736363723724E-13, 2.499999999999992006, 55.00000000000000711 ) ) ;
#223 = PERSON_AND_ORGANIZATION_ROLE ( 'creator' ) ;
#224 = AXIS2_PLACEMENT_3D ( 'NONE', #65, #4, #88 ) ;
#225 = AXIS2_PLACEMENT_3D ( 'NONE', #200, #91, #124 ) ;
#226 = SHAPE_DEFINITION_REPRESENTATION ( #180, #10 ) ;
#227 = CARTESIAN_POINT ( 'NONE',  ( 1.902857329669507616E-13, -6.674325055353075041E-15, 54.50000000000000000 ) ) ;
#228 = FACE_OUTER_BOUND ( 'NONE', #160, .T. ) ;
#229 = LOCAL_TIME ( 8, 42, 0.0000000000000000000, #201 ) ;
#230 = ORIENTED_EDGE ( 'NONE', *, *, #151, .F. ) ;
#231 = PERSON_AND_ORGANIZATION ( #162, #237 ) ;
#232 = AXIS2_PLACEMENT_3D ( 'NONE', #86, #106, #159 ) ;
#233 = APPROVAL_ROLE ( '' ) ;
#234 = FACE_OUTER_BOUND ( 'NONE', #209, .T. ) ;
#235 = EDGE_CURVE ( 'NONE', #33, #33, #214, .T. ) ;
#236 = PLANE ( 'NONE',  #94 ) ;
#237 = ORGANIZATION ( 'UNSPECIFIED', 'UNSPECIFIED', '' ) ;
#238 = DIRECTION ( 'NONE',  ( 1.000000000000000000, 0.0000000000000000000, -3.469446951953616161E-15 ) ) ;
#239 = CC_DESIGN_DATE_AND_TIME_ASSIGNMENT ( #19, #87, ( #163 ) ) ;
#240 = PERSON_AND_ORGANIZATION ( #162, #237 ) ;
#241 = PERSON_AND_ORGANIZATION ( #162, #237 ) ;
#242 = AXIS2_PLACEMENT_3D ( 'NONE', #50, #212, #30 ) ;
#243 = ORIENTED_EDGE ( 'NONE', *, *, #145, .T. ) ;
ENDSEC;
END-ISO-10303-21;
