ISO-10303-21;
HEADER;
FILE_DESCRIPTION (( 'STEP AP203' ),
    '1' );
FILE_NAME ('334901.step',
    '2021-11-15T07:42:00',
    ( '' ),
    ( '' ),
    'SwSTEP 2.0',
    'SolidWorks 2019',
    '' );
FILE_SCHEMA (( 'CONFIG_CONTROL_DESIGN' ));
ENDSEC;

DATA;
#1 = PERSON_AND_ORGANIZATION_ROLE ( 'creator' ) ;
#2 = CC_DESIGN_PERSON_AND_ORGANIZATION_ASSIGNMENT ( #224, #103, ( #200 ) ) ;
#3 = APPROVAL_STATUS ( 'not_yet_approved' ) ;
#4 = CIRCLE ( 'NONE', #69, 1.600000000000001865 ) ;
#5 = CALENDAR_DATE ( 2021, 15, 11 ) ;
#6 = AXIS2_PLACEMENT_3D ( 'NONE', #91, #72, #203 ) ;
#7 = CLOSED_SHELL ( 'NONE', ( #177, #60, #152, #240, #19, #102 ) ) ;
#8 = ORIENTED_EDGE ( 'NONE', *, *, #43, .F. ) ;
#9 = DIRECTION ( 'NONE',  ( 3.491481338843133355E-15, -0.0000000000000000000, 1.000000000000000000 ) ) ;
#10 = EDGE_LOOP ( 'NONE', ( #107 ) ) ;
#11 = EDGE_LOOP ( 'NONE', ( #180 ) ) ;
#12 = DIRECTION ( 'NONE',  ( 1.000000000000000000, 0.0000000000000000000, -3.469446951953614978E-15 ) ) ;
#13 = VERTEX_POINT ( 'NONE', #133 ) ;
#14 = AXIS2_PLACEMENT_3D ( 'NONE', #27, #104, #63 ) ;
#15 = EDGE_CURVE ( 'NONE', #13, #13, #190, .T. ) ;
#16 = CARTESIAN_POINT ( 'NONE',  ( 1.250000000000018208, 0.0000000000000000000, 5.299999999999996270 ) ) ;
#17 = CARTESIAN_POINT ( 'NONE',  ( 1.326762908760390675E-13, 1.599999999999997202, 38.00000000000000711 ) ) ;
#18 = PLANE ( 'NONE',  #6 ) ;
#19 = ADVANCED_FACE ( 'NONE', ( #143, #123 ), #243, .T. ) ;
#20 = FACE_OUTER_BOUND ( 'NONE', #201, .T. ) ;
#21 = PERSON_AND_ORGANIZATION ( #161, #155 ) ;
#22 = ADVANCED_BREP_SHAPE_REPRESENTATION ( '334901', ( #156, #241, #216 ), #127 ) ;
#23 = CALENDAR_DATE ( 2021, 15, 11 ) ;
#24 = COORDINATED_UNIVERSAL_TIME_OFFSET ( 1, 0, .AHEAD. ) ;
#25 = SHAPE_DEFINITION_REPRESENTATION ( #93, #22 ) ;
#26 = EDGE_CURVE ( 'NONE', #54, #54, #4, .T. ) ;
#27 = CARTESIAN_POINT ( 'NONE',  ( 1.312796983405018394E-13, -4.604671964794048513E-15, 37.60000000000000853 ) ) ;
#28 = ORIENTED_EDGE ( 'NONE', *, *, #15, .F. ) ;
#29 = ORIENTED_EDGE ( 'NONE', *, *, #26, .T. ) ;
#30 = ORIENTED_EDGE ( 'NONE', *, *, #43, .T. ) ;
#31 = LOCAL_TIME ( 8, 42, 0.0000000000000000000, #58 ) ;
#32 = EDGE_LOOP ( 'NONE', ( #30 ) ) ;
#33 = ADVANCED_FACE ( 'NONE', ( #199 ), #49, .T. ) ;
#34 = FACE_OUTER_BOUND ( 'NONE', #110, .T. ) ;
#35 = CARTESIAN_POINT ( 'NONE',  ( 2.000000000000028866, 0.0000000000000000000, 8.362343100851509448 ) ) ;
#36 = CYLINDRICAL_SURFACE ( 'NONE', #117, 1.250000000000000000 ) ;
#37 = FACE_OUTER_BOUND ( 'NONE', #198, .T. ) ;
#38 = APPROVAL_PERSON_ORGANIZATION ( #195, #237, #168 ) ;
#39 = CLOSED_SHELL ( 'NONE', ( #105, #142, #33 ) ) ;
#40 = CC_DESIGN_PERSON_AND_ORGANIZATION_ASSIGNMENT ( #21, #154, ( #219 ) ) ;
#41 = APPROVAL_DATE_TIME ( #59, #205 ) ;
#42 = PERSON_AND_ORGANIZATION ( #161, #155 ) ;
#43 = EDGE_CURVE ( 'NONE', #111, #111, #136, .T. ) ;
#44 = PLANE ( 'NONE',  #166 ) ;
#45 = CC_DESIGN_APPROVAL ( #76, ( #200 ) ) ;
#46 = ORIENTED_EDGE ( 'NONE', *, *, #222, .T. ) ;
#47 = CC_DESIGN_PERSON_AND_ORGANIZATION_ASSIGNMENT ( #150, #1, ( #181 ) ) ;
#48 = ORIENTED_EDGE ( 'NONE', *, *, #26, .F. ) ;
#49 = PLANE ( 'NONE',  #108 ) ;
#50 = LOCAL_TIME ( 8, 42, 0.0000000000000000000, #24 ) ;
#51 = EDGE_CURVE ( 'NONE', #73, #73, #130, .T. ) ;
#52 = PLANE ( 'NONE',  #208 ) ;
#53 = CARTESIAN_POINT ( 'NONE',  ( 0.0000000000000000000, 0.0000000000000000000, 0.0000000000000000000 ) ) ;
#54 = VERTEX_POINT ( 'NONE', #17 ) ;
#55 = DIRECTION ( 'NONE',  ( 1.000000000000000000, 0.0000000000000000000, -3.491481338843133355E-15 ) ) ;
#56 = CARTESIAN_POINT ( 'NONE',  ( 1.850485109586860678E-14, 1.499759782661856513E-32, 5.299999999999999822 ) ) ;
#57 = APPROVAL_PERSON_ORGANIZATION ( #192, #76, #194 ) ;
#58 = COORDINATED_UNIVERSAL_TIME_OFFSET ( 1, 0, .AHEAD. ) ;
#59 = DATE_AND_TIME ( #134, #31 ) ;
#60 = ADVANCED_FACE ( 'NONE', ( #83, #231 ), #81, .T. ) ;
#61 = DATE_TIME_ROLE ( 'classification_date' ) ;
#62 = AXIS2_PLACEMENT_3D ( 'NONE', #92, #204, #184 ) ;
#63 = DIRECTION ( 'NONE',  ( 0.0000000000000000000, 1.000000000000000000, 0.0000000000000000000 ) ) ;
#64 = FACE_OUTER_BOUND ( 'NONE', #128, .T. ) ;
#65 = CC_DESIGN_SECURITY_CLASSIFICATION ( #185, ( #200 ) ) ;
#66 = CC_DESIGN_DATE_AND_TIME_ASSIGNMENT ( #228, #153, ( #181 ) ) ;
#67 = DIRECTION ( 'NONE',  ( 1.000000000000000000, 0.0000000000000000000, -3.469446951953614978E-15 ) ) ;
#68 = EDGE_LOOP ( 'NONE', ( #28 ) ) ;
#69 = AXIS2_PLACEMENT_3D ( 'NONE', #234, #125, #230 ) ;
#70 = DIRECTION ( 'NONE',  ( -3.491481338843133355E-15, 1.224646799147353207E-16, -1.000000000000000000 ) ) ;
#71 = AXIS2_PLACEMENT_3D ( 'NONE', #232, #140, #211 ) ;
#72 = DIRECTION ( 'NONE',  ( 3.491481338843133355E-15, -1.224646799147353207E-16, 1.000000000000000000 ) ) ;
#73 = VERTEX_POINT ( 'NONE', #35 ) ;
#74 = APPLICATION_CONTEXT ( 'configuration controlled 3d designs of mechanical parts and assemblies' ) ;
#75 = CARTESIAN_POINT ( 'NONE',  ( -1.710332578358783092E-30, 0.0000000000000000000, -4.898587196589412829E-16 ) ) ;
#76 = APPROVAL ( #3, 'UNSPECIFIED' ) ;
#77 = DATE_AND_TIME ( #242, #138 ) ;
#78 = APPROVAL_PERSON_ORGANIZATION ( #99, #205, #135 ) ;
#79 = COORDINATED_UNIVERSAL_TIME_OFFSET ( 1, 0, .AHEAD. ) ;
#80 = DATE_AND_TIME ( #23, #50 ) ;
#81 = CONICAL_SURFACE ( 'NONE', #14, 1.999999999999999556, 0.7853981633974485010 ) ;
#82 = ORIENTED_EDGE ( 'NONE', *, *, #222, .F. ) ;
#83 = FACE_BOUND ( 'NONE', #87, .T. ) ;
#84 = AXIS2_PLACEMENT_3D ( 'NONE', #157, #9, #12 ) ;
#85 = DIRECTION ( 'NONE',  ( 3.491481338843133355E-15, -0.0000000000000000000, 1.000000000000000000 ) ) ;
#86 = EDGE_LOOP ( 'NONE', ( #126 ) ) ;
#87 = EDGE_LOOP ( 'NONE', ( #29 ) ) ;
#88 = FACE_OUTER_BOUND ( 'NONE', #32, .T. ) ;
#89 = DESIGN_CONTEXT ( 'detailed design', #97, 'design' ) ;
#90 = AXIS2_PLACEMENT_3D ( 'NONE', #96, #112, #220 ) ;
#91 = CARTESIAN_POINT ( 'NONE',  ( 1.850485109586860678E-14, 1.499759782661856513E-32, 5.299999999999999822 ) ) ;
#92 = CARTESIAN_POINT ( 'NONE',  ( 1.850485109586860678E-14, 0.0000000000000000000, 5.299999999999999822 ) ) ;
#93 = PRODUCT_DEFINITION_SHAPE ( 'NONE', 'NONE',  #181 ) ;
#94 = CARTESIAN_POINT ( 'NONE',  ( 1.326762908760390675E-13, -8.377713426430119900E-31, 38.00000000000000711 ) ) ;
#95 = TOROIDAL_SURFACE ( 'NONE', #62, 3.249999999999999556, 1.999999999999999112 ) ;
#96 = CARTESIAN_POINT ( 'NONE',  ( 1.850485109586860994E-14, 0.0000000000000000000, 5.300000000000000711 ) ) ;
#97 = APPLICATION_CONTEXT ( 'configuration controlled 3d designs of mechanical parts and assemblies' ) ;
#98 = EDGE_CURVE ( 'NONE', #114, #114, #174, .T. ) ;
#99 = PERSON_AND_ORGANIZATION ( #161, #155 ) ;
#100 = CALENDAR_DATE ( 2021, 15, 11 ) ;
#101 = DIRECTION ( 'NONE',  ( 1.000000000000000000, 0.0000000000000000000, 0.0000000000000000000 ) ) ;
#102 = ADVANCED_FACE ( 'NONE', ( #64 ), #44, .F. ) ;
#103 = PERSON_AND_ORGANIZATION_ROLE ( 'design_supplier' ) ;
#104 = DIRECTION ( 'NONE',  ( -3.491481338843133355E-15, 1.224646799147353207E-16, -1.000000000000000000 ) ) ;
#105 = ADVANCED_FACE ( 'NONE', ( #20 ), #18, .T. ) ;
#106 = EDGE_LOOP ( 'NONE', ( #48 ) ) ;
#107 = ORIENTED_EDGE ( 'NONE', *, *, #51, .T. ) ;
#108 = AXIS2_PLACEMENT_3D ( 'NONE', #215, #70, #141 ) ;
#109 = ORIENTED_EDGE ( 'NONE', *, *, #15, .T. ) ;
#110 = EDGE_LOOP ( 'NONE', ( #158 ) ) ;
#111 = VERTEX_POINT ( 'NONE', #16 ) ;
#112 = DIRECTION ( 'NONE',  ( 3.491481338843133355E-15, -0.0000000000000000000, 1.000000000000000000 ) ) ;
#113 = CC_DESIGN_PERSON_AND_ORGANIZATION_ASSIGNMENT ( #226, #191, ( #200 ) ) ;
#114 = VERTEX_POINT ( 'NONE', #207 ) ;
#115 = CARTESIAN_POINT ( 'NONE',  ( 0.0000000000000000000, 0.0000000000000000000, 0.0000000000000000000 ) ) ;
#116 = VERTEX_POINT ( 'NONE', #167 ) ;
#117 = AXIS2_PLACEMENT_3D ( 'NONE', #115, #187, #182 ) ;
#118 = DIRECTION ( 'NONE',  ( 0.0000000000000000000, 0.0000000000000000000, 1.000000000000000000 ) ) ;
#119 = COORDINATED_UNIVERSAL_TIME_OFFSET ( 1, 0, .AHEAD. ) ;
#120 = MECHANICAL_CONTEXT ( 'NONE', #74, 'mechanical' ) ;
#121 = AXIS2_PLACEMENT_3D ( 'NONE', #217, #176, #179 ) ;
#122 = AXIS2_PLACEMENT_3D ( 'NONE', #75, #148, #55 ) ;
#123 = FACE_BOUND ( 'NONE', #86, .T. ) ;
#124 = DIRECTION ( 'NONE',  ( 0.0000000000000000000, 1.000000000000000000, 0.0000000000000000000 ) ) ;
#125 = DIRECTION ( 'NONE',  ( -3.491481338843133355E-15, 1.224646799147353207E-16, -1.000000000000000000 ) ) ;
#126 = ORIENTED_EDGE ( 'NONE', *, *, #98, .T. ) ;
#127 =( GEOMETRIC_REPRESENTATION_CONTEXT ( 3 ) GLOBAL_UNCERTAINTY_ASSIGNED_CONTEXT ( ( #129 ) ) GLOBAL_UNIT_ASSIGNED_CONTEXT ( ( #131, #236, #202 ) ) REPRESENTATION_CONTEXT ( 'NONE', 'WORKASPACE' ) );
#128 = EDGE_LOOP ( 'NONE', ( #8 ) ) ;
#129 = UNCERTAINTY_MEASURE_WITH_UNIT (LENGTH_MEASURE( 1.000000000000000082E-05 ), #131, 'distance_accuracy_value', 'NONE');
#130 = CIRCLE ( 'NONE', #121, 1.999999999999999556 ) ;
#131 =( LENGTH_UNIT ( ) NAMED_UNIT ( * ) SI_UNIT ( .MILLI., .METRE. ) );
#132 = CYLINDRICAL_SURFACE ( 'NONE', #229, 1.999999999999999556 ) ;
#133 = CARTESIAN_POINT ( 'NONE',  ( 1.312796983405018394E-13, 1.999999999999994893, 37.60000000000000853 ) ) ;
#134 = CALENDAR_DATE ( 2021, 15, 11 ) ;
#135 = APPROVAL_ROLE ( '' ) ;
#136 = CIRCLE ( 'NONE', #183, 1.249999999999999778 ) ;
#137 = APPROVAL_DATE_TIME ( #227, #76 ) ;
#138 = LOCAL_TIME ( 8, 42, 0.0000000000000000000, #119 ) ;
#139 = APPROVAL_STATUS ( 'not_yet_approved' ) ;
#140 = DIRECTION ( 'NONE',  ( 3.491481338843133355E-15, -0.0000000000000000000, 1.000000000000000000 ) ) ;
#141 = DIRECTION ( 'NONE',  ( 4.275831445896958607E-31, 1.000000000000000000, 1.224646799147353207E-16 ) ) ;
#142 = ADVANCED_FACE ( 'NONE', ( #34, #223 ), #36, .T. ) ;
#143 = FACE_OUTER_BOUND ( 'NONE', #160, .T. ) ;
#144 = CARTESIAN_POINT ( 'NONE',  ( 1.850485109586860994E-14, 0.0000000000000000000, 5.300000000000000711 ) ) ;
#145 = AXIS2_PLACEMENT_3D ( 'NONE', #197, #178, #124 ) ;
#146 = DIRECTION ( 'NONE',  ( 4.275831445896958607E-31, 1.000000000000000000, 1.224646799147353207E-16 ) ) ;
#147 = FACE_OUTER_BOUND ( 'NONE', #10, .T. ) ;
#148 = DIRECTION ( 'NONE',  ( 3.491481338843133355E-15, -0.0000000000000000000, 1.000000000000000000 ) ) ;
#149 = CARTESIAN_POINT ( 'NONE',  ( 1.250000000000000222, 0.0000000000000000000, -4.854210393212858864E-15 ) ) ;
#150 = PERSON_AND_ORGANIZATION ( #161, #155 ) ;
#151 = PERSON_AND_ORGANIZATION_ROLE ( 'classification_officer' ) ;
#152 = ADVANCED_FACE ( 'NONE', ( #186 ), #52, .F. ) ;
#153 = DATE_TIME_ROLE ( 'creation_date' ) ;
#154 = PERSON_AND_ORGANIZATION_ROLE ( 'design_owner' ) ;
#155 = ORGANIZATION ( 'UNSPECIFIED', 'UNSPECIFIED', '' ) ;
#156 = MANIFOLD_SOLID_BREP ( 'Corps-Déplacer/Copier1[1]', #7 ) ;
#157 = CARTESIAN_POINT ( 'NONE',  ( 5.525773638610973710E-14, 0.0000000000000000000, 15.82644471598946723 ) ) ;
#158 = ORIENTED_EDGE ( 'NONE', *, *, #212, .T. ) ;
#159 = EDGE_LOOP ( 'NONE', ( #82 ) ) ;
#160 = EDGE_LOOP ( 'NONE', ( #175 ) ) ;
#161 = PERSON ( 'UNSPECIFIED', 'UNSPECIFIED', 'UNSPECIFIED', ('UNSPECIFIED'), ('UNSPECIFIED'), ('UNSPECIFIED') ) ;
#162 = CC_DESIGN_DATE_AND_TIME_ASSIGNMENT ( #80, #61, ( #185 ) ) ;
#163 = CIRCLE ( 'NONE', #90, 1.249999999999999778 ) ;
#164 = VERTEX_POINT ( 'NONE', #149 ) ;
#165 = DIRECTION ( 'NONE',  ( -3.491481338843133355E-15, 1.224646799147353207E-16, -1.000000000000000000 ) ) ;
#166 = AXIS2_PLACEMENT_3D ( 'NONE', #56, #206, #188 ) ;
#167 = CARTESIAN_POINT ( 'NONE',  ( 1.250000000000018208, 0.0000000000000000000, 5.299999999999996270 ) ) ;
#168 = APPROVAL_ROLE ( '' ) ;
#169 = COORDINATED_UNIVERSAL_TIME_OFFSET ( 1, 0, .AHEAD. ) ;
#170 = APPLICATION_PROTOCOL_DEFINITION ( 'international standard', 'config_control_design', 1994, #97 ) ;
#171 = APPROVAL_STATUS ( 'not_yet_approved' ) ;
#172 = PRODUCT_RELATED_PRODUCT_CATEGORY ( 'detail', '', ( #219 ) ) ;
#173 = APPROVAL_DATE_TIME ( #77, #237 ) ;
#174 = CIRCLE ( 'NONE', #71, 1.318148347421860267 ) ;
#175 = ORIENTED_EDGE ( 'NONE', *, *, #51, .F. ) ;
#176 = DIRECTION ( 'NONE',  ( 3.491481338843133355E-15, -0.0000000000000000000, 1.000000000000000000 ) ) ;
#177 = ADVANCED_FACE ( 'NONE', ( #37, #147 ), #132, .T. ) ;
#178 = DIRECTION ( 'NONE',  ( -3.491481338843133355E-15, 1.224646799147353207E-16, -1.000000000000000000 ) ) ;
#179 = DIRECTION ( 'NONE',  ( 1.000000000000000000, 0.0000000000000000000, -3.469446951953614978E-15 ) ) ;
#180 = ORIENTED_EDGE ( 'NONE', *, *, #212, .F. ) ;
#181 = PRODUCT_DEFINITION ( 'UNKNOWN', '', #200, #89 ) ;
#182 = DIRECTION ( 'NONE',  ( 1.000000000000000000, 0.0000000000000000000, -3.491481338843133355E-15 ) ) ;
#183 = AXIS2_PLACEMENT_3D ( 'NONE', #144, #85, #67 ) ;
#184 = DIRECTION ( 'NONE',  ( 1.000000000000000000, 0.0000000000000000000, -3.491481338843132961E-15 ) ) ;
#185 = SECURITY_CLASSIFICATION ( '', '', #210 ) ;
#186 = FACE_OUTER_BOUND ( 'NONE', #106, .T. ) ;
#187 = DIRECTION ( 'NONE',  ( 3.491481338843133355E-15, -0.0000000000000000000, 1.000000000000000000 ) ) ;
#188 = DIRECTION ( 'NONE',  ( -4.275831445896958607E-31, -1.000000000000000000, -1.224646799147353207E-16 ) ) ;
#189 = CC_DESIGN_APPROVAL ( #205, ( #185 ) ) ;
#190 = CIRCLE ( 'NONE', #145, 1.999999999999999556 ) ;
#191 = PERSON_AND_ORGANIZATION_ROLE ( 'creator' ) ;
#192 = PERSON_AND_ORGANIZATION ( #161, #155 ) ;
#193 = APPLICATION_PROTOCOL_DEFINITION ( 'international standard', 'config_control_design', 1994, #74 ) ;
#194 = APPROVAL_ROLE ( '' ) ;
#195 = PERSON_AND_ORGANIZATION ( #161, #155 ) ;
#196 = CIRCLE ( 'NONE', #122, 1.250000000000000222 ) ;
#197 = CARTESIAN_POINT ( 'NONE',  ( 1.312796983405018394E-13, -4.604671964794048513E-15, 37.60000000000000853 ) ) ;
#198 = EDGE_LOOP ( 'NONE', ( #109 ) ) ;
#199 = FACE_OUTER_BOUND ( 'NONE', #11, .T. ) ;
#200 = PRODUCT_DEFINITION_FORMATION_WITH_SPECIFIED_SOURCE ( 'ANY', '', #219, .NOT_KNOWN. ) ;
#201 = EDGE_LOOP ( 'NONE', ( #46 ) ) ;
#202 =( NAMED_UNIT ( * ) SI_UNIT ( $, .STERADIAN. ) SOLID_ANGLE_UNIT ( ) );
#203 = DIRECTION ( 'NONE',  ( -4.275831445896958607E-31, -1.000000000000000000, -1.224646799147353207E-16 ) ) ;
#204 = DIRECTION ( 'NONE',  ( 3.491481338843133355E-15, -0.0000000000000000000, 1.000000000000000000 ) ) ;
#205 = APPROVAL ( #139, 'UNSPECIFIED' ) ;
#206 = DIRECTION ( 'NONE',  ( 3.491481338843133355E-15, -1.224646799147353207E-16, 1.000000000000000000 ) ) ;
#207 = CARTESIAN_POINT ( 'NONE',  ( 1.318148347421880695, 0.0000000000000000000, 5.817638090205024426 ) ) ;
#208 = AXIS2_PLACEMENT_3D ( 'NONE', #94, #221, #146 ) ;
#209 = CARTESIAN_POINT ( 'NONE',  ( 0.0000000000000000000, 0.0000000000000000000, 0.0000000000000000000 ) ) ;
#210 = SECURITY_CLASSIFICATION_LEVEL ( 'unclassified' ) ;
#211 = DIRECTION ( 'NONE',  ( 1.000000000000000000, 0.0000000000000000000, -3.290076339604942282E-15 ) ) ;
#212 = EDGE_CURVE ( 'NONE', #164, #164, #196, .T. ) ;
#213 = ORIENTED_EDGE ( 'NONE', *, *, #98, .F. ) ;
#214 = CC_DESIGN_PERSON_AND_ORGANIZATION_ASSIGNMENT ( #42, #151, ( #185 ) ) ;
#215 = CARTESIAN_POINT ( 'NONE',  ( -4.275831445896957731E-31, 1.499759782661857608E-32, -1.224646799147353207E-16 ) ) ;
#216 = AXIS2_PLACEMENT_3D ( 'NONE', #209, #118, #101 ) ;
#217 = CARTESIAN_POINT ( 'NONE',  ( 2.919696488562668781E-14, 0.0000000000000000000, 8.362343100851516553 ) ) ;
#218 = FACE_OUTER_BOUND ( 'NONE', #233, .T. ) ;
#219 = PRODUCT ( '334901', '334901', '', ( #120 ) ) ;
#220 = DIRECTION ( 'NONE',  ( 1.000000000000000000, 0.0000000000000000000, -3.469446951953614978E-15 ) ) ;
#221 = DIRECTION ( 'NONE',  ( -3.491481338843133355E-15, 1.224646799147353207E-16, -1.000000000000000000 ) ) ;
#222 = EDGE_CURVE ( 'NONE', #116, #116, #163, .T. ) ;
#223 = FACE_OUTER_BOUND ( 'NONE', #159, .T. ) ;
#224 = PERSON_AND_ORGANIZATION ( #161, #155 ) ;
#225 = LOCAL_TIME ( 8, 42, 0.0000000000000000000, #79 ) ;
#226 = PERSON_AND_ORGANIZATION ( #161, #155 ) ;
#227 = DATE_AND_TIME ( #5, #225 ) ;
#228 = DATE_AND_TIME ( #100, #235 ) ;
#229 = AXIS2_PLACEMENT_3D ( 'NONE', #53, #165, #239 ) ;
#230 = DIRECTION ( 'NONE',  ( 0.0000000000000000000, 1.000000000000000000, 0.0000000000000000000 ) ) ;
#231 = FACE_OUTER_BOUND ( 'NONE', #68, .T. ) ;
#232 = CARTESIAN_POINT ( 'NONE',  ( 2.031217482809386159E-14, 0.0000000000000000000, 5.817638090205027979 ) ) ;
#233 = EDGE_LOOP ( 'NONE', ( #213 ) ) ;
#234 = CARTESIAN_POINT ( 'NONE',  ( 1.326762908760390675E-13, -4.653657836759942730E-15, 38.00000000000000711 ) ) ;
#235 = LOCAL_TIME ( 8, 42, 0.0000000000000000000, #169 ) ;
#236 =( NAMED_UNIT ( * ) PLANE_ANGLE_UNIT ( ) SI_UNIT ( $, .RADIAN. ) );
#237 = APPROVAL ( #171, 'UNSPECIFIED' ) ;
#238 = CC_DESIGN_APPROVAL ( #237, ( #181 ) ) ;
#239 = DIRECTION ( 'NONE',  ( 4.275831445896958607E-31, 1.000000000000000000, 1.224646799147353207E-16 ) ) ;
#240 = ADVANCED_FACE ( 'NONE', ( #88, #218 ), #95, .F. ) ;
#241 = MANIFOLD_SOLID_BREP ( 'Corps-Déplacer/Copier1[2]', #39 ) ;
#242 = CALENDAR_DATE ( 2021, 15, 11 ) ;
#243 = CONICAL_SURFACE ( 'NONE', #84, 3.999999999999999112, 0.2617993877991427465 ) ;
ENDSEC;
END-ISO-10303-21;
