ISO-10303-21;
HEADER;
FILE_DESCRIPTION (( 'STEP AP203' ),
    '1' );
FILE_NAME ('334900.step',
    '2021-11-15T07:41:59',
    ( '' ),
    ( '' ),
    'SwSTEP 2.0',
    'SolidWorks 2019',
    '' );
FILE_SCHEMA (( 'CONFIG_CONTROL_DESIGN' ));
ENDSEC;

DATA;
#1 = DIRECTION ( 'NONE',  ( -3.491481338843133355E-15, 1.224646799147353207E-16, -1.000000000000000000 ) ) ;
#2 = PRODUCT_DEFINITION ( 'UNKNOWN', '', #15, #124 ) ;
#3 = DIRECTION ( 'NONE',  ( 4.275831445896958607E-31, 1.000000000000000000, 1.224646799147353207E-16 ) ) ;
#4 = PERSON ( 'UNSPECIFIED', 'UNSPECIFIED', 'UNSPECIFIED', ('UNSPECIFIED'), ('UNSPECIFIED'), ('UNSPECIFIED') ) ;
#5 = CARTESIAN_POINT ( 'NONE',  ( 1.501336975702547343E-14, 0.0000000000000000000, 4.299999999999999822 ) ) ;
#6 = CIRCLE ( 'NONE', #169, 0.9999999999999995559 ) ;
#7 = DATE_AND_TIME ( #66, #234 ) ;
#8 = VERTEX_POINT ( 'NONE', #25 ) ;
#9 = APPROVAL_DATE_TIME ( #23, #200 ) ;
#10 = LOCAL_TIME ( 8, 41, 59.00000000000000000, #109 ) ;
#11 = DATE_AND_TIME ( #173, #86 ) ;
#12 = COORDINATED_UNIVERSAL_TIME_OFFSET ( 1, 0, .AHEAD. ) ;
#13 = FACE_OUTER_BOUND ( 'NONE', #125, .T. ) ;
#14 = CARTESIAN_POINT ( 'NONE',  ( 0.0000000000000000000, 0.0000000000000000000, 0.0000000000000000000 ) ) ;
#15 = PRODUCT_DEFINITION_FORMATION_WITH_SPECIFIED_SOURCE ( 'ANY', '', #161, .NOT_KNOWN. ) ;
#16 = CARTESIAN_POINT ( 'NONE',  ( 5.502385148482699200E-14, 0.0000000000000000000, 15.75945741788171262 ) ) ;
#17 = DIRECTION ( 'NONE',  ( 3.491481338843133355E-15, -0.0000000000000000000, 1.000000000000000000 ) ) ;
#18 = CC_DESIGN_APPROVAL ( #204, ( #242 ) ) ;
#19 = DIRECTION ( 'NONE',  ( 3.491481338843133355E-15, -1.224646799147353207E-16, 1.000000000000000000 ) ) ;
#20 = FACE_OUTER_BOUND ( 'NONE', #90, .T. ) ;
#21 = ADVANCED_BREP_SHAPE_REPRESENTATION ( '334900', ( #81, #74, #118 ), #113 ) ;
#22 = DIRECTION ( 'NONE',  ( 1.000000000000000000, 0.0000000000000000000, -3.248094668055855295E-15 ) ) ;
#23 = DATE_AND_TIME ( #194, #209 ) ;
#24 = APPLICATION_PROTOCOL_DEFINITION ( 'international standard', 'config_control_design', 1994, #40 ) ;
#25 = CARTESIAN_POINT ( 'NONE',  ( 1.326762908760390675E-13, 1.599999999999997202, 38.00000000000000711 ) ) ;
#26 = PERSON_AND_ORGANIZATION ( #4, #47 ) ;
#27 = COORDINATED_UNIVERSAL_TIME_OFFSET ( 1, 0, .AHEAD. ) ;
#28 = CALENDAR_DATE ( 2021, 15, 11 ) ;
#29 = ORIENTED_EDGE ( 'NONE', *, *, #120, .F. ) ;
#30 = DIRECTION ( 'NONE',  ( 3.491481338843133355E-15, -0.0000000000000000000, 1.000000000000000000 ) ) ;
#31 = EDGE_LOOP ( 'NONE', ( #179 ) ) ;
#32 = EDGE_LOOP ( 'NONE', ( #159 ) ) ;
#33 = CC_DESIGN_DATE_AND_TIME_ASSIGNMENT ( #11, #156, ( #2 ) ) ;
#34 = ORIENTED_EDGE ( 'NONE', *, *, #120, .T. ) ;
#35 = VERTEX_POINT ( 'NONE', #168 ) ;
#36 = CARTESIAN_POINT ( 'NONE',  ( 1.501336975702547343E-14, 1.499759782661856787E-32, 4.299999999999999822 ) ) ;
#37 = AXIS2_PLACEMENT_3D ( 'NONE', #149, #165, #134 ) ;
#38 = DIRECTION ( 'NONE',  ( 0.0000000000000000000, 1.000000000000000000, 0.0000000000000000000 ) ) ;
#39 = CARTESIAN_POINT ( 'NONE',  ( 2.896307998434394272E-14, 0.0000000000000000000, 8.295355802743761942 ) ) ;
#40 = APPLICATION_CONTEXT ( 'configuration controlled 3d designs of mechanical parts and assemblies' ) ;
#41 = FACE_OUTER_BOUND ( 'NONE', #201, .T. ) ;
#42 = EDGE_CURVE ( 'NONE', #35, #35, #84, .T. ) ;
#43 = PERSON_AND_ORGANIZATION_ROLE ( 'creator' ) ;
#44 = AXIS2_PLACEMENT_3D ( 'NONE', #205, #150, #202 ) ;
#45 = PERSON_AND_ORGANIZATION ( #4, #47 ) ;
#46 = CC_DESIGN_PERSON_AND_ORGANIZATION_ASSIGNMENT ( #45, #121, ( #242 ) ) ;
#47 = ORGANIZATION ( 'UNSPECIFIED', 'UNSPECIFIED', '' ) ;
#48 = VERTEX_POINT ( 'NONE', #229 ) ;
#49 = CC_DESIGN_PERSON_AND_ORGANIZATION_ASSIGNMENT ( #172, #101, ( #2 ) ) ;
#50 = CYLINDRICAL_SURFACE ( 'NONE', #241, 0.9999999999999997780 ) ;
#51 = AXIS2_PLACEMENT_3D ( 'NONE', #166, #164, #80 ) ;
#52 = CIRCLE ( 'NONE', #162, 1.068148347421859157 ) ;
#53 = EDGE_LOOP ( 'NONE', ( #29 ) ) ;
#54 = PERSON_AND_ORGANIZATION ( #4, #47 ) ;
#55 = ADVANCED_FACE ( 'NONE', ( #178, #13 ), #50, .T. ) ;
#56 = ORIENTED_EDGE ( 'NONE', *, *, #42, .F. ) ;
#57 = AXIS2_PLACEMENT_3D ( 'NONE', #16, #99, #94 ) ;
#58 = DIRECTION ( 'NONE',  ( -3.491481338843133355E-15, 1.224646799147353207E-16, -1.000000000000000000 ) ) ;
#59 = FACE_OUTER_BOUND ( 'NONE', #31, .T. ) ;
#60 = DIRECTION ( 'NONE',  ( 3.491481338843133355E-15, -0.0000000000000000000, 1.000000000000000000 ) ) ;
#61 = AXIS2_PLACEMENT_3D ( 'NONE', #98, #227, #3 ) ;
#62 = FACE_OUTER_BOUND ( 'NONE', #32, .T. ) ;
#63 = CARTESIAN_POINT ( 'NONE',  ( 1.682069348925072508E-14, 0.0000000000000000000, 4.817638090205026202 ) ) ;
#64 = CC_DESIGN_DATE_AND_TIME_ASSIGNMENT ( #127, #238, ( #242 ) ) ;
#65 = CONICAL_SURFACE ( 'NONE', #57, 4.000000000000000000, 0.2617993877991428575 ) ;
#66 = CALENDAR_DATE ( 2021, 15, 11 ) ;
#67 = APPROVAL ( #135, 'UNSPECIFIED' ) ;
#68 = APPLICATION_PROTOCOL_DEFINITION ( 'international standard', 'config_control_design', 1994, #175 ) ;
#69 = DIRECTION ( 'NONE',  ( 3.491481338843133355E-15, -0.0000000000000000000, 1.000000000000000000 ) ) ;
#70 = APPROVAL_ROLE ( '' ) ;
#71 = EDGE_LOOP ( 'NONE', ( #34 ) ) ;
#72 = CC_DESIGN_APPROVAL ( #67, ( #15 ) ) ;
#73 = ADVANCED_FACE ( 'NONE', ( #182, #145 ), #65, .T. ) ;
#74 = MANIFOLD_SOLID_BREP ( 'Corps-Déplacer/Copier1[2]', #177 ) ;
#75 = FACE_OUTER_BOUND ( 'NONE', #110, .T. ) ;
#76 = CIRCLE ( 'NONE', #44, 1.000000000000000000 ) ;
#77 = CARTESIAN_POINT ( 'NONE',  ( 1.501336975702547343E-14, 1.499759782661856787E-32, 4.299999999999999822 ) ) ;
#78 = DIRECTION ( 'NONE',  ( -3.491481338843133355E-15, 1.224646799147353207E-16, -1.000000000000000000 ) ) ;
#79 = DIRECTION ( 'NONE',  ( 4.275831445896958607E-31, 1.000000000000000000, 1.224646799147353207E-16 ) ) ;
#80 = DIRECTION ( 'NONE',  ( 0.0000000000000000000, 1.000000000000000000, 0.0000000000000000000 ) ) ;
#81 = MANIFOLD_SOLID_BREP ( 'Corps-Déplacer/Copier1[1]', #102 ) ;
#82 = APPROVAL_DATE_TIME ( #7, #67 ) ;
#83 = CARTESIAN_POINT ( 'NONE',  ( 1.312796983405018394E-13, 1.999999999999994893, 37.60000000000000853 ) ) ;
#84 = CIRCLE ( 'NONE', #104, 0.9999999999999995559 ) ;
#85 = COORDINATED_UNIVERSAL_TIME_OFFSET ( 1, 0, .AHEAD. ) ;
#86 = LOCAL_TIME ( 8, 41, 59.00000000000000000, #85 ) ;
#87 = PERSON_AND_ORGANIZATION ( #4, #47 ) ;
#88 = ORIENTED_EDGE ( 'NONE', *, *, #230, .T. ) ;
#89 = AXIS2_PLACEMENT_3D ( 'NONE', #207, #1, #38 ) ;
#90 = EDGE_LOOP ( 'NONE', ( #180 ) ) ;
#91 = CC_DESIGN_APPROVAL ( #200, ( #2 ) ) ;
#92 = CALENDAR_DATE ( 2021, 15, 11 ) ;
#93 = EDGE_LOOP ( 'NONE', ( #143 ) ) ;
#94 = DIRECTION ( 'NONE',  ( 1.000000000000000000, 0.0000000000000000000, -3.469446951953614189E-15 ) ) ;
#95 = CARTESIAN_POINT ( 'NONE',  ( 1.000000000000000000, 0.0000000000000000000, -3.981340058502074737E-15 ) ) ;
#96 = ADVANCED_FACE ( 'NONE', ( #20 ), #147, .F. ) ;
#97 = CONICAL_SURFACE ( 'NONE', #51, 1.999999999999999556, 0.7853981633974485010 ) ;
#98 = CARTESIAN_POINT ( 'NONE',  ( 1.326762908760390675E-13, -8.377713426430119900E-31, 38.00000000000000711 ) ) ;
#99 = DIRECTION ( 'NONE',  ( 3.491481338843133355E-15, -0.0000000000000000000, 1.000000000000000000 ) ) ;
#100 = ADVANCED_FACE ( 'NONE', ( #167 ), #133, .T. ) ;
#101 = PERSON_AND_ORGANIZATION_ROLE ( 'creator' ) ;
#102 = CLOSED_SHELL ( 'NONE', ( #151, #144, #96, #240, #73, #171 ) ) ;
#103 = PERSON_AND_ORGANIZATION_ROLE ( 'design_owner' ) ;
#104 = AXIS2_PLACEMENT_3D ( 'NONE', #235, #69, #105 ) ;
#105 = DIRECTION ( 'NONE',  ( 1.000000000000000000, 0.0000000000000000000, -3.469446951953615767E-15 ) ) ;
#106 = APPROVAL_PERSON_ORGANIZATION ( #87, #67, #170 ) ;
#107 = APPROVAL_DATE_TIME ( #141, #204 ) ;
#108 = CC_DESIGN_PERSON_AND_ORGANIZATION_ASSIGNMENT ( #26, #103, ( #161 ) ) ;
#109 = COORDINATED_UNIVERSAL_TIME_OFFSET ( 1, 0, .AHEAD. ) ;
#110 = EDGE_LOOP ( 'NONE', ( #88 ) ) ;
#111 = PLANE ( 'NONE',  #153 ) ;
#112 = FACE_OUTER_BOUND ( 'NONE', #217, .T. ) ;
#113 =( GEOMETRIC_REPRESENTATION_CONTEXT ( 3 ) GLOBAL_UNCERTAINTY_ASSIGNED_CONTEXT ( ( #195 ) ) GLOBAL_UNIT_ASSIGNED_CONTEXT ( ( #232, #138, #189 ) ) REPRESENTATION_CONTEXT ( 'NONE', 'WORKASPACE' ) );
#114 = DIRECTION ( 'NONE',  ( 3.491481338843133355E-15, -0.0000000000000000000, 1.000000000000000000 ) ) ;
#115 = PRODUCT_RELATED_PRODUCT_CATEGORY ( 'detail', '', ( #161 ) ) ;
#116 = DIRECTION ( 'NONE',  ( 1.000000000000000000, 0.0000000000000000000, -3.469446951953614189E-15 ) ) ;
#117 = DIRECTION ( 'NONE',  ( 1.000000000000000000, 0.0000000000000000000, -3.491481338843133355E-15 ) ) ;
#118 = AXIS2_PLACEMENT_3D ( 'NONE', #158, #233, #155 ) ;
#119 = APPROVAL_ROLE ( '' ) ;
#120 = EDGE_CURVE ( 'NONE', #181, #181, #76, .T. ) ;
#121 = PERSON_AND_ORGANIZATION_ROLE ( 'classification_officer' ) ;
#122 = VERTEX_POINT ( 'NONE', #187 ) ;
#123 = EDGE_CURVE ( 'NONE', #8, #8, #154, .T. ) ;
#124 = DESIGN_CONTEXT ( 'detailed design', #175, 'design' ) ;
#125 = EDGE_LOOP ( 'NONE', ( #56 ) ) ;
#126 = EDGE_LOOP ( 'NONE', ( #198 ) ) ;
#127 = DATE_AND_TIME ( #28, #10 ) ;
#128 = EDGE_LOOP ( 'NONE', ( #219 ) ) ;
#129 = FACE_OUTER_BOUND ( 'NONE', #199, .T. ) ;
#130 = DIRECTION ( 'NONE',  ( -4.275831445896958607E-31, -1.000000000000000000, -1.224646799147353207E-16 ) ) ;
#131 = CARTESIAN_POINT ( 'NONE',  ( 1.501336975702547343E-14, 0.0000000000000000000, 4.299999999999999822 ) ) ;
#132 = CIRCLE ( 'NONE', #226, 2.000000000000000000 ) ;
#133 = PLANE ( 'NONE',  #146 ) ;
#134 = DIRECTION ( 'NONE',  ( 0.0000000000000000000, 1.000000000000000000, 0.0000000000000000000 ) ) ;
#135 = APPROVAL_STATUS ( 'not_yet_approved' ) ;
#136 = ADVANCED_FACE ( 'NONE', ( #203 ), #111, .T. ) ;
#137 = PERSON_AND_ORGANIZATION_ROLE ( 'design_supplier' ) ;
#138 =( NAMED_UNIT ( * ) PLANE_ANGLE_UNIT ( ) SI_UNIT ( $, .RADIAN. ) );
#139 = APPROVAL_STATUS ( 'not_yet_approved' ) ;
#140 = APPROVAL_PERSON_ORGANIZATION ( #54, #204, #70 ) ;
#141 = DATE_AND_TIME ( #92, #193 ) ;
#142 = ORIENTED_EDGE ( 'NONE', *, *, #212, .F. ) ;
#143 = ORIENTED_EDGE ( 'NONE', *, *, #123, .T. ) ;
#144 = ADVANCED_FACE ( 'NONE', ( #221, #112 ), #97, .T. ) ;
#145 = FACE_BOUND ( 'NONE', #214, .T. ) ;
#146 = AXIS2_PLACEMENT_3D ( 'NONE', #186, #78, #79 ) ;
#147 = PLANE ( 'NONE',  #61 ) ;
#148 = CARTESIAN_POINT ( 'NONE',  ( 0.0000000000000000000, 0.0000000000000000000, 0.0000000000000000000 ) ) ;
#149 = CARTESIAN_POINT ( 'NONE',  ( 1.326762908760390675E-13, -4.653657836759942730E-15, 38.00000000000000711 ) ) ;
#150 = DIRECTION ( 'NONE',  ( 3.491481338843133355E-15, -0.0000000000000000000, 1.000000000000000000 ) ) ;
#151 = ADVANCED_FACE ( 'NONE', ( #59, #41 ), #225, .T. ) ;
#152 = VERTEX_POINT ( 'NONE', #211 ) ;
#153 = AXIS2_PLACEMENT_3D ( 'NONE', #77, #243, #130 ) ;
#154 = CIRCLE ( 'NONE', #37, 1.600000000000001865 ) ;
#155 = DIRECTION ( 'NONE',  ( 1.000000000000000000, 0.0000000000000000000, 0.0000000000000000000 ) ) ;
#156 = DATE_TIME_ROLE ( 'creation_date' ) ;
#157 = CC_DESIGN_PERSON_AND_ORGANIZATION_ASSIGNMENT ( #228, #43, ( #15 ) ) ;
#158 = CARTESIAN_POINT ( 'NONE',  ( 0.0000000000000000000, 0.0000000000000000000, 0.0000000000000000000 ) ) ;
#159 = ORIENTED_EDGE ( 'NONE', *, *, #230, .F. ) ;
#160 = DIRECTION ( 'NONE',  ( 1.000000000000000000, 0.0000000000000000000, -3.491481338843133355E-15 ) ) ;
#161 = PRODUCT ( '334900', '334900', '', ( #191 ) ) ;
#162 = AXIS2_PLACEMENT_3D ( 'NONE', #63, #60, #22 ) ;
#163 = ORIENTED_EDGE ( 'NONE', *, *, #212, .T. ) ;
#164 = DIRECTION ( 'NONE',  ( -3.491481338843133355E-15, 1.224646799147353207E-16, -1.000000000000000000 ) ) ;
#165 = DIRECTION ( 'NONE',  ( -3.491481338843133355E-15, 1.224646799147353207E-16, -1.000000000000000000 ) ) ;
#166 = CARTESIAN_POINT ( 'NONE',  ( 1.312796983405018394E-13, -4.604671964794048513E-15, 37.60000000000000853 ) ) ;
#167 = FACE_OUTER_BOUND ( 'NONE', #53, .T. ) ;
#168 = CARTESIAN_POINT ( 'NONE',  ( 1.000000000000014655, 0.0000000000000000000, 4.299999999999996270 ) ) ;
#169 = AXIS2_PLACEMENT_3D ( 'NONE', #131, #114, #185 ) ;
#170 = APPROVAL_ROLE ( '' ) ;
#171 = ADVANCED_FACE ( 'NONE', ( #62 ), #239, .F. ) ;
#172 = PERSON_AND_ORGANIZATION ( #4, #47 ) ;
#173 = CALENDAR_DATE ( 2021, 15, 11 ) ;
#174 = VERTEX_POINT ( 'NONE', #83 ) ;
#175 = APPLICATION_CONTEXT ( 'configuration controlled 3d designs of mechanical parts and assemblies' ) ;
#176 = APPROVAL_PERSON_ORGANIZATION ( #210, #200, #119 ) ;
#177 = CLOSED_SHELL ( 'NONE', ( #136, #55, #100 ) ) ;
#178 = FACE_OUTER_BOUND ( 'NONE', #71, .T. ) ;
#179 = ORIENTED_EDGE ( 'NONE', *, *, #184, .T. ) ;
#180 = ORIENTED_EDGE ( 'NONE', *, *, #123, .F. ) ;
#181 = VERTEX_POINT ( 'NONE', #95 ) ;
#182 = FACE_OUTER_BOUND ( 'NONE', #128, .T. ) ;
#183 = CIRCLE ( 'NONE', #89, 1.999999999999999556 ) ;
#184 = EDGE_CURVE ( 'NONE', #174, #174, #183, .T. ) ;
#185 = DIRECTION ( 'NONE',  ( 1.000000000000000000, 0.0000000000000000000, -3.469446951953615767E-15 ) ) ;
#186 = CARTESIAN_POINT ( 'NONE',  ( -4.275831445896957731E-31, 1.499759782661857608E-32, -1.224646799147353207E-16 ) ) ;
#187 = CARTESIAN_POINT ( 'NONE',  ( 1.000000000000014655, 0.0000000000000000000, 4.299999999999996270 ) ) ;
#188 = AXIS2_PLACEMENT_3D ( 'NONE', #36, #19, #224 ) ;
#189 =( NAMED_UNIT ( * ) SI_UNIT ( $, .STERADIAN. ) SOLID_ANGLE_UNIT ( ) );
#190 = PRODUCT_DEFINITION_SHAPE ( 'NONE', 'NONE',  #2 ) ;
#191 = MECHANICAL_CONTEXT ( 'NONE', #40, 'mechanical' ) ;
#192 = SECURITY_CLASSIFICATION_LEVEL ( 'unclassified' ) ;
#193 = LOCAL_TIME ( 8, 41, 59.00000000000000000, #218 ) ;
#194 = CALENDAR_DATE ( 2021, 15, 11 ) ;
#195 = UNCERTAINTY_MEASURE_WITH_UNIT (LENGTH_MEASURE( 1.000000000000000082E-05 ), #232, 'distance_accuracy_value', 'NONE');
#196 = EDGE_CURVE ( 'NONE', #152, #152, #132, .T. ) ;
#197 = ORIENTED_EDGE ( 'NONE', *, *, #184, .F. ) ;
#198 = ORIENTED_EDGE ( 'NONE', *, *, #42, .T. ) ;
#199 = EDGE_LOOP ( 'NONE', ( #142 ) ) ;
#200 = APPROVAL ( #139, 'UNSPECIFIED' ) ;
#201 = EDGE_LOOP ( 'NONE', ( #236 ) ) ;
#202 = DIRECTION ( 'NONE',  ( 1.000000000000000000, 0.0000000000000000000, -3.491481338843133355E-15 ) ) ;
#203 = FACE_OUTER_BOUND ( 'NONE', #126, .T. ) ;
#204 = APPROVAL ( #216, 'UNSPECIFIED' ) ;
#205 = CARTESIAN_POINT ( 'NONE',  ( -1.710332578358783092E-30, 0.0000000000000000000, -4.898587196589412829E-16 ) ) ;
#206 = CC_DESIGN_SECURITY_CLASSIFICATION ( #242, ( #15 ) ) ;
#207 = CARTESIAN_POINT ( 'NONE',  ( 1.312796983405018394E-13, -4.604671964794048513E-15, 37.60000000000000853 ) ) ;
#208 = DIRECTION ( 'NONE',  ( 3.491481338843133355E-15, -0.0000000000000000000, 1.000000000000000000 ) ) ;
#209 = LOCAL_TIME ( 8, 41, 59.00000000000000000, #12 ) ;
#210 = PERSON_AND_ORGANIZATION ( #4, #47 ) ;
#211 = CARTESIAN_POINT ( 'NONE',  ( 2.000000000000029310, 0.0000000000000000000, 8.295355802743754836 ) ) ;
#212 = EDGE_CURVE ( 'NONE', #48, #48, #52, .T. ) ;
#213 = SHAPE_DEFINITION_REPRESENTATION ( #190, #21 ) ;
#214 = EDGE_LOOP ( 'NONE', ( #163 ) ) ;
#215 = AXIS2_PLACEMENT_3D ( 'NONE', #5, #208, #117 ) ;
#216 = APPROVAL_STATUS ( 'not_yet_approved' ) ;
#217 = EDGE_LOOP ( 'NONE', ( #197 ) ) ;
#218 = COORDINATED_UNIVERSAL_TIME_OFFSET ( 1, 0, .AHEAD. ) ;
#219 = ORIENTED_EDGE ( 'NONE', *, *, #196, .F. ) ;
#220 = TOROIDAL_SURFACE ( 'NONE', #215, 2.999999999999999556, 2.000000000000000000 ) ;
#221 = FACE_BOUND ( 'NONE', #93, .T. ) ;
#222 = CC_DESIGN_PERSON_AND_ORGANIZATION_ASSIGNMENT ( #231, #137, ( #15 ) ) ;
#223 = DIRECTION ( 'NONE',  ( 4.275831445896958607E-31, 1.000000000000000000, 1.224646799147353207E-16 ) ) ;
#224 = DIRECTION ( 'NONE',  ( -4.275831445896958607E-31, -1.000000000000000000, -1.224646799147353207E-16 ) ) ;
#225 = CYLINDRICAL_SURFACE ( 'NONE', #237, 2.000000000000000000 ) ;
#226 = AXIS2_PLACEMENT_3D ( 'NONE', #39, #17, #116 ) ;
#227 = DIRECTION ( 'NONE',  ( -3.491481338843133355E-15, 1.224646799147353207E-16, -1.000000000000000000 ) ) ;
#228 = PERSON_AND_ORGANIZATION ( #4, #47 ) ;
#229 = CARTESIAN_POINT ( 'NONE',  ( 1.068148347421876032, 0.0000000000000000000, 4.817638090205022650 ) ) ;
#230 = EDGE_CURVE ( 'NONE', #122, #122, #6, .T. ) ;
#231 = PERSON_AND_ORGANIZATION ( #4, #47 ) ;
#232 =( LENGTH_UNIT ( ) NAMED_UNIT ( * ) SI_UNIT ( .MILLI., .METRE. ) );
#233 = DIRECTION ( 'NONE',  ( 0.0000000000000000000, 0.0000000000000000000, 1.000000000000000000 ) ) ;
#234 = LOCAL_TIME ( 8, 41, 59.00000000000000000, #27 ) ;
#235 = CARTESIAN_POINT ( 'NONE',  ( 1.501336975702547343E-14, 0.0000000000000000000, 4.299999999999999822 ) ) ;
#236 = ORIENTED_EDGE ( 'NONE', *, *, #196, .T. ) ;
#237 = AXIS2_PLACEMENT_3D ( 'NONE', #148, #58, #223 ) ;
#238 = DATE_TIME_ROLE ( 'classification_date' ) ;
#239 = PLANE ( 'NONE',  #188 ) ;
#240 = ADVANCED_FACE ( 'NONE', ( #75, #129 ), #220, .F. ) ;
#241 = AXIS2_PLACEMENT_3D ( 'NONE', #14, #30, #160 ) ;
#242 = SECURITY_CLASSIFICATION ( '', '', #192 ) ;
#243 = DIRECTION ( 'NONE',  ( 3.491481338843133355E-15, -1.224646799147353207E-16, 1.000000000000000000 ) ) ;
ENDSEC;
END-ISO-10303-21;
