ISO-10303-21;
HEADER;
FILE_DESCRIPTION (( 'STEP AP203' ),
    '1' );
FILE_NAME ('334899.step',
    '2021-11-15T07:41:59',
    ( '' ),
    ( '' ),
    'SwSTEP 2.0',
    'SolidWorks 2019',
    '' );
FILE_SCHEMA (( 'CONFIG_CONTROL_DESIGN' ));
ENDSEC;

DATA;
#1 = CIRCLE ( 'NONE', #124, 0.9499999999999995115 ) ;
#2 = PERSON_AND_ORGANIZATION ( #221, #13 ) ;
#3 = EDGE_CURVE ( 'NONE', #36, #36, #104, .T. ) ;
#4 = CC_DESIGN_APPROVAL ( #46, ( #59 ) ) ;
#5 = FACE_OUTER_BOUND ( 'NONE', #58, .T. ) ;
#6 = CLOSED_SHELL ( 'NONE', ( #56, #176, #148 ) ) ;
#7 = DATE_TIME_ROLE ( 'classification_date' ) ;
#8 = PERSON_AND_ORGANIZATION ( #221, #13 ) ;
#9 = LOCAL_TIME ( 8, 41, 59.00000000000000000, #146 ) ;
#10 = DIRECTION ( 'NONE',  ( -3.491481338843133355E-15, 1.224646799147353207E-16, -1.000000000000000000 ) ) ;
#11 = DIRECTION ( 'NONE',  ( 0.0000000000000000000, 1.000000000000000000, 0.0000000000000000000 ) ) ;
#12 = EDGE_LOOP ( 'NONE', ( #158 ) ) ;
#13 = ORGANIZATION ( 'UNSPECIFIED', 'UNSPECIFIED', '' ) ;
#14 = ADVANCED_FACE ( 'NONE', ( #134, #117 ), #93, .T. ) ;
#15 = PLANE ( 'NONE',  #42 ) ;
#16 = PERSON_AND_ORGANIZATION_ROLE ( 'design_owner' ) ;
#17 = MECHANICAL_CONTEXT ( 'NONE', #143, 'mechanical' ) ;
#18 = DIRECTION ( 'NONE',  ( 3.491481338843133355E-15, -0.0000000000000000000, 1.000000000000000000 ) ) ;
#19 = AXIS2_PLACEMENT_3D ( 'NONE', #157, #74, #155 ) ;
#20 = VERTEX_POINT ( 'NONE', #34 ) ;
#21 = CARTESIAN_POINT ( 'NONE',  ( 2.000000000000028866, 0.0000000000000000000, 8.181958343122207822 ) ) ;
#22 = DIRECTION ( 'NONE',  ( 1.000000000000000000, 0.0000000000000000000, -3.652049423109069602E-15 ) ) ;
#23 = APPROVAL_DATE_TIME ( #77, #46 ) ;
#24 = CARTESIAN_POINT ( 'NONE',  ( 1.396592535537253342E-14, 0.0000000000000000000, 4.000000000000000000 ) ) ;
#25 = ORIENTED_EDGE ( 'NONE', *, *, #163, .F. ) ;
#26 = DIRECTION ( 'NONE',  ( 1.000000000000000000, 0.0000000000000000000, -3.407604560513110593E-15 ) ) ;
#27 = CYLINDRICAL_SURFACE ( 'NONE', #45, 2.000000000000000000 ) ;
#28 = ORIENTED_EDGE ( 'NONE', *, *, #37, .F. ) ;
#29 = AXIS2_PLACEMENT_3D ( 'NONE', #24, #177, #55 ) ;
#30 = COORDINATED_UNIVERSAL_TIME_OFFSET ( 1, 0, .AHEAD. ) ;
#31 = APPLICATION_PROTOCOL_DEFINITION ( 'international standard', 'config_control_design', 1994, #143 ) ;
#32 = FACE_OUTER_BOUND ( 'NONE', #96, .T. ) ;
#33 = ADVANCED_BREP_SHAPE_REPRESENTATION ( '334899', ( #232, #64, #189 ), #198 ) ;
#34 = CARTESIAN_POINT ( 'NONE',  ( 1.326762908760390675E-13, 1.599999999999997202, 38.00000000000000711 ) ) ;
#35 = DIRECTION ( 'NONE',  ( 4.275831445896958607E-31, 1.000000000000000000, 1.224646799147353207E-16 ) ) ;
#36 = VERTEX_POINT ( 'NONE', #128 ) ;
#37 = EDGE_CURVE ( 'NONE', #206, #206, #240, .T. ) ;
#38 = PRODUCT_DEFINITION_SHAPE ( 'NONE', 'NONE',  #211 ) ;
#39 = PERSON_AND_ORGANIZATION ( #221, #13 ) ;
#40 = ADVANCED_FACE ( 'NONE', ( #43, #183 ), #61, .T. ) ;
#41 = DIRECTION ( 'NONE',  ( 3.491481338843133355E-15, -0.0000000000000000000, 1.000000000000000000 ) ) ;
#42 = AXIS2_PLACEMENT_3D ( 'NONE', #70, #84, #87 ) ;
#43 = FACE_OUTER_BOUND ( 'NONE', #216, .T. ) ;
#44 = PRODUCT_DEFINITION_FORMATION_WITH_SPECIFIED_SOURCE ( 'ANY', '', #174, .NOT_KNOWN. ) ;
#45 = AXIS2_PLACEMENT_3D ( 'NONE', #178, #200, #35 ) ;
#46 = APPROVAL ( #132, 'UNSPECIFIED' ) ;
#47 = PLANE ( 'NONE',  #129 ) ;
#48 = FACE_OUTER_BOUND ( 'NONE', #121, .T. ) ;
#49 = FACE_OUTER_BOUND ( 'NONE', #81, .T. ) ;
#50 = APPROVAL_ROLE ( '' ) ;
#51 = PERSON_AND_ORGANIZATION_ROLE ( 'creator' ) ;
#52 = DIRECTION ( 'NONE',  ( 1.000000000000000000, 0.0000000000000000000, -3.491481338843132961E-15 ) ) ;
#53 = PERSON_AND_ORGANIZATION ( #221, #13 ) ;
#54 = PERSON_AND_ORGANIZATION_ROLE ( 'creator' ) ;
#55 = DIRECTION ( 'NONE',  ( 1.000000000000000000, 0.0000000000000000000, -3.491481338843133355E-15 ) ) ;
#56 = ADVANCED_FACE ( 'NONE', ( #219 ), #47, .T. ) ;
#57 = PERSON_AND_ORGANIZATION ( #221, #13 ) ;
#58 = EDGE_LOOP ( 'NONE', ( #25 ) ) ;
#59 = SECURITY_CLASSIFICATION ( '', '', #156 ) ;
#60 = ORIENTED_EDGE ( 'NONE', *, *, #37, .T. ) ;
#61 = CONICAL_SURFACE ( 'NONE', #100, 4.000000000000000000, 0.2617993877991429130 ) ;
#62 = DIRECTION ( 'NONE',  ( 3.491481338843133355E-15, -0.0000000000000000000, 1.000000000000000000 ) ) ;
#63 = AXIS2_PLACEMENT_3D ( 'NONE', #235, #165, #208 ) ;
#64 = MANIFOLD_SOLID_BREP ( 'Corps-Déplacer/Copier1[2]', #6 ) ;
#65 = CARTESIAN_POINT ( 'NONE',  ( 2.856715487020309803E-14, 0.0000000000000000000, 8.181958343122214927 ) ) ;
#66 = CIRCLE ( 'NONE', #19, 1.600000000000001865 ) ;
#67 = DATE_TIME_ROLE ( 'creation_date' ) ;
#68 = CC_DESIGN_PERSON_AND_ORGANIZATION_ASSIGNMENT ( #8, #80, ( #44 ) ) ;
#69 = APPROVAL_PERSON_ORGANIZATION ( #53, #106, #50 ) ;
#70 = CARTESIAN_POINT ( 'NONE',  ( 1.326762908760390675E-13, -8.377713426430119900E-31, 38.00000000000000711 ) ) ;
#71 = PERSON_AND_ORGANIZATION ( #221, #13 ) ;
#72 = CALENDAR_DATE ( 2021, 15, 11 ) ;
#73 = AXIS2_PLACEMENT_3D ( 'NONE', #103, #181, #215 ) ;
#74 = DIRECTION ( 'NONE',  ( -3.491481338843133355E-15, 1.224646799147353207E-16, -1.000000000000000000 ) ) ;
#75 = CYLINDRICAL_SURFACE ( 'NONE', #154, 0.9499999999999996225 ) ;
#76 = APPLICATION_CONTEXT ( 'configuration controlled 3d designs of mechanical parts and assemblies' ) ;
#77 = DATE_AND_TIME ( #213, #79 ) ;
#78 = ORIENTED_EDGE ( 'NONE', *, *, #82, .T. ) ;
#79 = LOCAL_TIME ( 8, 41, 59.00000000000000000, #153 ) ;
#80 = PERSON_AND_ORGANIZATION_ROLE ( 'design_supplier' ) ;
#81 = EDGE_LOOP ( 'NONE', ( #218 ) ) ;
#82 = EDGE_CURVE ( 'NONE', #89, #89, #228, .T. ) ;
#83 = DIRECTION ( 'NONE',  ( 3.491481338843133355E-15, -0.0000000000000000000, 1.000000000000000000 ) ) ;
#84 = DIRECTION ( 'NONE',  ( -3.491481338843133355E-15, 1.224646799147353207E-16, -1.000000000000000000 ) ) ;
#85 = ADVANCED_FACE ( 'NONE', ( #49 ), #15, .F. ) ;
#86 = APPROVAL_STATUS ( 'not_yet_approved' ) ;
#87 = DIRECTION ( 'NONE',  ( 4.275831445896958607E-31, 1.000000000000000000, 1.224646799147353207E-16 ) ) ;
#88 = VERTEX_POINT ( 'NONE', #202 ) ;
#89 = VERTEX_POINT ( 'NONE', #21 ) ;
#90 = CC_DESIGN_DATE_AND_TIME_ASSIGNMENT ( #195, #7, ( #59 ) ) ;
#91 = CARTESIAN_POINT ( 'NONE',  ( 0.9499999999999998446, 0.0000000000000000000, -3.806765991559917280E-15 ) ) ;
#92 = CC_DESIGN_SECURITY_CLASSIFICATION ( #59, ( #44 ) ) ;
#93 = CONICAL_SURFACE ( 'NONE', #171, 1.999999999999999556, 0.7853981633974485010 ) ;
#94 = CARTESIAN_POINT ( 'NONE',  ( 0.0000000000000000000, 0.0000000000000000000, 0.0000000000000000000 ) ) ;
#95 = PRODUCT_RELATED_PRODUCT_CATEGORY ( 'detail', '', ( #174 ) ) ;
#96 = EDGE_LOOP ( 'NONE', ( #28 ) ) ;
#97 = SHAPE_DEFINITION_REPRESENTATION ( #38, #33 ) ;
#98 = ORIENTED_EDGE ( 'NONE', *, *, #238, .F. ) ;
#99 = LOCAL_TIME ( 8, 41, 59.00000000000000000, #113 ) ;
#100 = AXIS2_PLACEMENT_3D ( 'NONE', #237, #62, #140 ) ;
#101 = PLANE ( 'NONE',  #217 ) ;
#102 = ORIENTED_EDGE ( 'NONE', *, *, #3, .T. ) ;
#103 = CARTESIAN_POINT ( 'NONE',  ( 1.396592535537253342E-14, 1.499759782661856787E-32, 4.000000000000000000 ) ) ;
#104 = CIRCLE ( 'NONE', #63, 1.999999999999999556 ) ;
#105 = ADVANCED_FACE ( 'NONE', ( #126, #32 ), #138, .F. ) ;
#106 = APPROVAL ( #86, 'UNSPECIFIED' ) ;
#107 = CARTESIAN_POINT ( 'NONE',  ( 0.9500000000000133893, 0.0000000000000000000, 3.999999999999996447 ) ) ;
#108 = DATE_AND_TIME ( #72, #212 ) ;
#109 = CARTESIAN_POINT ( 'NONE',  ( -1.710332578358783092E-30, 0.0000000000000000000, -4.898587196589412829E-16 ) ) ;
#110 = DATE_AND_TIME ( #145, #229 ) ;
#111 = CC_DESIGN_DATE_AND_TIME_ASSIGNMENT ( #242, #67, ( #211 ) ) ;
#112 = CALENDAR_DATE ( 2021, 15, 11 ) ;
#113 = COORDINATED_UNIVERSAL_TIME_OFFSET ( 1, 0, .AHEAD. ) ;
#114 = CARTESIAN_POINT ( 'NONE',  ( 1.312796983405018394E-13, -4.604671964794048513E-15, 37.60000000000000853 ) ) ;
#115 = FACE_OUTER_BOUND ( 'NONE', #231, .T. ) ;
#116 = FACE_OUTER_BOUND ( 'NONE', #210, .T. ) ;
#117 = FACE_OUTER_BOUND ( 'NONE', #133, .T. ) ;
#118 = PERSON_AND_ORGANIZATION_ROLE ( 'classification_officer' ) ;
#119 = DIRECTION ( 'NONE',  ( 4.275831445896958607E-31, 1.000000000000000000, 1.224646799147353207E-16 ) ) ;
#120 = AXIS2_PLACEMENT_3D ( 'NONE', #65, #142, #220 ) ;
#121 = EDGE_LOOP ( 'NONE', ( #78 ) ) ;
#122 = DESIGN_CONTEXT ( 'detailed design', #76, 'design' ) ;
#123 = CARTESIAN_POINT ( 'NONE',  ( 1.396592535537253342E-14, 1.499759782661856787E-32, 4.000000000000000000 ) ) ;
#124 = AXIS2_PLACEMENT_3D ( 'NONE', #192, #194, #22 ) ;
#125 = APPROVAL_ROLE ( '' ) ;
#126 = FACE_OUTER_BOUND ( 'NONE', #12, .T. ) ;
#127 = APPROVAL_PERSON_ORGANIZATION ( #39, #46, #193 ) ;
#128 = CARTESIAN_POINT ( 'NONE',  ( 1.312796983405018394E-13, 1.999999999999994893, 37.60000000000000853 ) ) ;
#129 = AXIS2_PLACEMENT_3D ( 'NONE', #123, #164, #239 ) ;
#130 = DIRECTION ( 'NONE',  ( 1.000000000000000000, 0.0000000000000000000, 0.0000000000000000000 ) ) ;
#131 = ORIENTED_EDGE ( 'NONE', *, *, #3, .F. ) ;
#132 = APPROVAL_STATUS ( 'not_yet_approved' ) ;
#133 = EDGE_LOOP ( 'NONE', ( #131 ) ) ;
#134 = FACE_BOUND ( 'NONE', #234, .T. ) ;
#135 = CIRCLE ( 'NONE', #187, 0.9499999999999998446 ) ;
#136 = EDGE_LOOP ( 'NONE', ( #230 ) ) ;
#137 = CC_DESIGN_PERSON_AND_ORGANIZATION_ASSIGNMENT ( #57, #118, ( #59 ) ) ;
#138 = TOROIDAL_SURFACE ( 'NONE', #29, 2.949999999999998845, 2.000000000000000000 ) ;
#139 = EDGE_LOOP ( 'NONE', ( #159 ) ) ;
#140 = DIRECTION ( 'NONE',  ( 1.000000000000000000, 0.0000000000000000000, -3.469446951953614189E-15 ) ) ;
#141 = ADVANCED_FACE ( 'NONE', ( #116 ), #197, .F. ) ;
#142 = DIRECTION ( 'NONE',  ( 3.491481338843133355E-15, -0.0000000000000000000, 1.000000000000000000 ) ) ;
#143 = APPLICATION_CONTEXT ( 'configuration controlled 3d designs of mechanical parts and assemblies' ) ;
#144 = FACE_OUTER_BOUND ( 'NONE', #180, .T. ) ;
#145 = CALENDAR_DATE ( 2021, 15, 11 ) ;
#146 = COORDINATED_UNIVERSAL_TIME_OFFSET ( 1, 0, .AHEAD. ) ;
#147 = CARTESIAN_POINT ( 'NONE',  ( 1.396592535537253342E-14, 0.0000000000000000000, 4.000000000000000000 ) ) ;
#148 = ADVANCED_FACE ( 'NONE', ( #115 ), #101, .T. ) ;
#149 = DIRECTION ( 'NONE',  ( 1.000000000000000000, 0.0000000000000000000, -3.652049423109069602E-15 ) ) ;
#150 = PERSON_AND_ORGANIZATION ( #221, #13 ) ;
#151 = APPROVAL_DATE_TIME ( #108, #106 ) ;
#152 = CC_DESIGN_PERSON_AND_ORGANIZATION_ASSIGNMENT ( #223, #51, ( #44 ) ) ;
#153 = COORDINATED_UNIVERSAL_TIME_OFFSET ( 1, 0, .AHEAD. ) ;
#154 = AXIS2_PLACEMENT_3D ( 'NONE', #94, #83, #243 ) ;
#155 = DIRECTION ( 'NONE',  ( 0.0000000000000000000, 1.000000000000000000, 0.0000000000000000000 ) ) ;
#156 = SECURITY_CLASSIFICATION_LEVEL ( 'unclassified' ) ;
#157 = CARTESIAN_POINT ( 'NONE',  ( 1.326762908760390675E-13, -4.653657836759942730E-15, 38.00000000000000711 ) ) ;
#158 = ORIENTED_EDGE ( 'NONE', *, *, #201, .T. ) ;
#159 = ORIENTED_EDGE ( 'NONE', *, *, #163, .T. ) ;
#160 = CIRCLE ( 'NONE', #204, 0.9499999999999995115 ) ;
#161 = CC_DESIGN_PERSON_AND_ORGANIZATION_ASSIGNMENT ( #71, #54, ( #211 ) ) ;
#162 = UNCERTAINTY_MEASURE_WITH_UNIT (LENGTH_MEASURE( 1.000000000000000082E-05 ), #209, 'distance_accuracy_value', 'NONE');
#163 = EDGE_CURVE ( 'NONE', #207, #207, #1, .T. ) ;
#164 = DIRECTION ( 'NONE',  ( 3.491481338843133355E-15, -1.224646799147353207E-16, 1.000000000000000000 ) ) ;
#165 = DIRECTION ( 'NONE',  ( -3.491481338843133355E-15, 1.224646799147353207E-16, -1.000000000000000000 ) ) ;
#166 = CALENDAR_DATE ( 2021, 15, 11 ) ;
#167 = APPLICATION_PROTOCOL_DEFINITION ( 'international standard', 'config_control_design', 1994, #76 ) ;
#168 = EDGE_CURVE ( 'NONE', #20, #20, #66, .T. ) ;
#169 =( NAMED_UNIT ( * ) PLANE_ANGLE_UNIT ( ) SI_UNIT ( $, .RADIAN. ) );
#170 = COORDINATED_UNIVERSAL_TIME_OFFSET ( 1, 0, .AHEAD. ) ;
#171 = AXIS2_PLACEMENT_3D ( 'NONE', #114, #214, #11 ) ;
#172 = CLOSED_SHELL ( 'NONE', ( #186, #14, #85, #105, #40, #141 ) ) ;
#173 = FACE_OUTER_BOUND ( 'NONE', #136, .T. ) ;
#174 = PRODUCT ( '334899', '334899', '', ( #17 ) ) ;
#175 = ORIENTED_EDGE ( 'NONE', *, *, #168, .T. ) ;
#176 = ADVANCED_FACE ( 'NONE', ( #173, #5 ), #75, .T. ) ;
#177 = DIRECTION ( 'NONE',  ( 3.491481338843133355E-15, -0.0000000000000000000, 1.000000000000000000 ) ) ;
#178 = CARTESIAN_POINT ( 'NONE',  ( 0.0000000000000000000, 0.0000000000000000000, 0.0000000000000000000 ) ) ;
#179 = CARTESIAN_POINT ( 'NONE',  ( -4.275831445896957731E-31, 1.499759782661857608E-32, -1.224646799147353207E-16 ) ) ;
#180 = EDGE_LOOP ( 'NONE', ( #102 ) ) ;
#181 = DIRECTION ( 'NONE',  ( 3.491481338843133355E-15, -1.224646799147353207E-16, 1.000000000000000000 ) ) ;
#182 = CARTESIAN_POINT ( 'NONE',  ( 1.577324908759778822E-14, 0.0000000000000000000, 4.517638090205028156 ) ) ;
#183 = FACE_BOUND ( 'NONE', #199, .T. ) ;
#184 = ORIENTED_EDGE ( 'NONE', *, *, #82, .F. ) ;
#185 = CC_DESIGN_APPROVAL ( #241, ( #44 ) ) ;
#186 = ADVANCED_FACE ( 'NONE', ( #144, #48 ), #27, .T. ) ;
#187 = AXIS2_PLACEMENT_3D ( 'NONE', #109, #41, #52 ) ;
#188 = VERTEX_POINT ( 'NONE', #91 ) ;
#189 = AXIS2_PLACEMENT_3D ( 'NONE', #225, #205, #130 ) ;
#190 = CARTESIAN_POINT ( 'NONE',  ( 1.018148347421874877, 0.0000000000000000000, 4.517638090205024604 ) ) ;
#191 = APPROVAL_DATE_TIME ( #110, #241 ) ;
#192 = CARTESIAN_POINT ( 'NONE',  ( 1.396592535537253342E-14, 0.0000000000000000000, 4.000000000000000000 ) ) ;
#193 = APPROVAL_ROLE ( '' ) ;
#194 = DIRECTION ( 'NONE',  ( 3.491481338843133355E-15, -0.0000000000000000000, 1.000000000000000000 ) ) ;
#195 = DATE_AND_TIME ( #112, #99 ) ;
#196 = ORIENTED_EDGE ( 'NONE', *, *, #201, .F. ) ;
#197 = PLANE ( 'NONE',  #73 ) ;
#198 =( GEOMETRIC_REPRESENTATION_CONTEXT ( 3 ) GLOBAL_UNCERTAINTY_ASSIGNED_CONTEXT ( ( #162 ) ) GLOBAL_UNIT_ASSIGNED_CONTEXT ( ( #209, #169, #222 ) ) REPRESENTATION_CONTEXT ( 'NONE', 'WORKASPACE' ) );
#199 = EDGE_LOOP ( 'NONE', ( #60 ) ) ;
#200 = DIRECTION ( 'NONE',  ( -3.491481338843133355E-15, 1.224646799147353207E-16, -1.000000000000000000 ) ) ;
#201 = EDGE_CURVE ( 'NONE', #88, #88, #160, .T. ) ;
#202 = CARTESIAN_POINT ( 'NONE',  ( 0.9500000000000133893, 0.0000000000000000000, 3.999999999999996447 ) ) ;
#203 = AXIS2_PLACEMENT_3D ( 'NONE', #182, #236, #26 ) ;
#204 = AXIS2_PLACEMENT_3D ( 'NONE', #147, #18, #149 ) ;
#205 = DIRECTION ( 'NONE',  ( 0.0000000000000000000, 0.0000000000000000000, 1.000000000000000000 ) ) ;
#206 = VERTEX_POINT ( 'NONE', #190 ) ;
#207 = VERTEX_POINT ( 'NONE', #107 ) ;
#208 = DIRECTION ( 'NONE',  ( 0.0000000000000000000, 1.000000000000000000, 0.0000000000000000000 ) ) ;
#209 =( LENGTH_UNIT ( ) NAMED_UNIT ( * ) SI_UNIT ( .MILLI., .METRE. ) );
#210 = EDGE_LOOP ( 'NONE', ( #196 ) ) ;
#211 = PRODUCT_DEFINITION ( 'UNKNOWN', '', #44, #122 ) ;
#212 = LOCAL_TIME ( 8, 41, 59.00000000000000000, #170 ) ;
#213 = CALENDAR_DATE ( 2021, 15, 11 ) ;
#214 = DIRECTION ( 'NONE',  ( -3.491481338843133355E-15, 1.224646799147353207E-16, -1.000000000000000000 ) ) ;
#215 = DIRECTION ( 'NONE',  ( -4.275831445896958607E-31, -1.000000000000000000, -1.224646799147353207E-16 ) ) ;
#216 = EDGE_LOOP ( 'NONE', ( #184 ) ) ;
#217 = AXIS2_PLACEMENT_3D ( 'NONE', #179, #10, #119 ) ;
#218 = ORIENTED_EDGE ( 'NONE', *, *, #168, .F. ) ;
#219 = FACE_OUTER_BOUND ( 'NONE', #139, .T. ) ;
#220 = DIRECTION ( 'NONE',  ( 1.000000000000000000, 0.0000000000000000000, -3.469446951953614189E-15 ) ) ;
#221 = PERSON ( 'UNSPECIFIED', 'UNSPECIFIED', 'UNSPECIFIED', ('UNSPECIFIED'), ('UNSPECIFIED'), ('UNSPECIFIED') ) ;
#222 =( NAMED_UNIT ( * ) SI_UNIT ( $, .STERADIAN. ) SOLID_ANGLE_UNIT ( ) );
#223 = PERSON_AND_ORGANIZATION ( #221, #13 ) ;
#224 = APPROVAL_PERSON_ORGANIZATION ( #150, #241, #125 ) ;
#225 = CARTESIAN_POINT ( 'NONE',  ( 0.0000000000000000000, 0.0000000000000000000, 0.0000000000000000000 ) ) ;
#226 = APPROVAL_STATUS ( 'not_yet_approved' ) ;
#227 = CC_DESIGN_PERSON_AND_ORGANIZATION_ASSIGNMENT ( #2, #16, ( #174 ) ) ;
#228 = CIRCLE ( 'NONE', #120, 2.000000000000000000 ) ;
#229 = LOCAL_TIME ( 8, 41, 59.00000000000000000, #30 ) ;
#230 = ORIENTED_EDGE ( 'NONE', *, *, #238, .T. ) ;
#231 = EDGE_LOOP ( 'NONE', ( #98 ) ) ;
#232 = MANIFOLD_SOLID_BREP ( 'Corps-Déplacer/Copier1[1]', #172 ) ;
#233 = CC_DESIGN_APPROVAL ( #106, ( #211 ) ) ;
#234 = EDGE_LOOP ( 'NONE', ( #175 ) ) ;
#235 = CARTESIAN_POINT ( 'NONE',  ( 1.312796983405018394E-13, -4.604671964794048513E-15, 37.60000000000000853 ) ) ;
#236 = DIRECTION ( 'NONE',  ( 3.491481338843133355E-15, -0.0000000000000000000, 1.000000000000000000 ) ) ;
#237 = CARTESIAN_POINT ( 'NONE',  ( 5.462792637068613470E-14, 0.0000000000000000000, 15.64605995826016205 ) ) ;
#238 = EDGE_CURVE ( 'NONE', #188, #188, #135, .T. ) ;
#239 = DIRECTION ( 'NONE',  ( -4.275831445896958607E-31, -1.000000000000000000, -1.224646799147353207E-16 ) ) ;
#240 = CIRCLE ( 'NONE', #203, 1.018148347421859112 ) ;
#241 = APPROVAL ( #226, 'UNSPECIFIED' ) ;
#242 = DATE_AND_TIME ( #166, #9 ) ;
#243 = DIRECTION ( 'NONE',  ( 1.000000000000000000, 0.0000000000000000000, -3.491481338843133355E-15 ) ) ;
ENDSEC;
END-ISO-10303-21;
