ISO-10303-21;
HEADER;
FILE_DESCRIPTION (( 'STEP AP203' ),
    '1' );
FILE_NAME ('334898.step',
    '2021-11-15T07:41:58',
    ( '' ),
    ( '' ),
    'SwSTEP 2.0',
    'SolidWorks 2019',
    '' );
FILE_SCHEMA (( 'CONFIG_CONTROL_DESIGN' ));
ENDSEC;

DATA;
#1 = APPROVAL ( #217, 'UNSPECIFIED' ) ;
#2 = CONICAL_SURFACE ( 'NONE', #100, 4.000000000000000000, 0.2617993877991428020 ) ;
#3 = ORIENTED_EDGE ( 'NONE', *, *, #136, .T. ) ;
#4 = DATE_AND_TIME ( #147, #139 ) ;
#5 = DIRECTION ( 'NONE',  ( 1.000000000000000000, 0.0000000000000000000, -3.373073425510460825E-15 ) ) ;
#6 = DIRECTION ( 'NONE',  ( 3.491481338843133355E-15, -0.0000000000000000000, 1.000000000000000000 ) ) ;
#7 = CARTESIAN_POINT ( 'NONE',  ( 0.9681483474218735008, 0.0000000000000000000, 4.317638090205023538 ) ) ;
#8 = CARTESIAN_POINT ( 'NONE',  ( 5.458114939042959704E-14, 0.0000000000000000000, 15.63266249863861468 ) ) ;
#9 = APPROVAL_STATUS ( 'not_yet_approved' ) ;
#10 = DIRECTION ( 'NONE',  ( -3.491481338843133355E-15, 1.224646799147353207E-16, -1.000000000000000000 ) ) ;
#11 = EDGE_CURVE ( 'NONE', #241, #241, #17, .T. ) ;
#12 = DIRECTION ( 'NONE',  ( 3.491481338843133355E-15, -0.0000000000000000000, 1.000000000000000000 ) ) ;
#13 = CC_DESIGN_PERSON_AND_ORGANIZATION_ASSIGNMENT ( #37, #115, ( #32 ) ) ;
#14 = CALENDAR_DATE ( 2021, 15, 11 ) ;
#15 = AXIS2_PLACEMENT_3D ( 'NONE', #215, #158, #170 ) ;
#16 = ORIENTED_EDGE ( 'NONE', *, *, #88, .T. ) ;
#17 = CIRCLE ( 'NONE', #208, 1.600000000000001865 ) ;
#18 = PRODUCT_RELATED_PRODUCT_CATEGORY ( 'detail', '', ( #145 ) ) ;
#19 = ORIENTED_EDGE ( 'NONE', *, *, #88, .F. ) ;
#20 = CONICAL_SURFACE ( 'NONE', #185, 1.999999999999999556, 0.7853981633974485010 ) ;
#21 = APPROVAL_STATUS ( 'not_yet_approved' ) ;
#22 = DIRECTION ( 'NONE',  ( 0.0000000000000000000, 1.000000000000000000, 0.0000000000000000000 ) ) ;
#23 = APPROVAL_PERSON_ORGANIZATION ( #198, #1, #50 ) ;
#24 =( GEOMETRIC_REPRESENTATION_CONTEXT ( 3 ) GLOBAL_UNCERTAINTY_ASSIGNED_CONTEXT ( ( #85 ) ) GLOBAL_UNIT_ASSIGNED_CONTEXT ( ( #122, #109, #193 ) ) REPRESENTATION_CONTEXT ( 'NONE', 'WORKASPACE' ) );
#25 = FACE_OUTER_BOUND ( 'NONE', #206, .T. ) ;
#26 = DATE_AND_TIME ( #44, #129 ) ;
#27 = DIRECTION ( 'NONE',  ( 1.000000000000000000, 0.0000000000000000000, -3.583590222709791127E-15 ) ) ;
#28 = VERTEX_POINT ( 'NONE', #171 ) ;
#29 = DIRECTION ( 'NONE',  ( 3.491481338843133355E-15, -0.0000000000000000000, 1.000000000000000000 ) ) ;
#30 = CC_DESIGN_PERSON_AND_ORGANIZATION_ASSIGNMENT ( #226, #131, ( #145 ) ) ;
#31 = DIRECTION ( 'NONE',  ( -3.491481338843133355E-15, 1.224646799147353207E-16, -1.000000000000000000 ) ) ;
#32 = PRODUCT_DEFINITION_FORMATION_WITH_SPECIFIED_SOURCE ( 'ANY', '', #145, .NOT_KNOWN. ) ;
#33 = COORDINATED_UNIVERSAL_TIME_OFFSET ( 1, 0, .AHEAD. ) ;
#34 = AXIS2_PLACEMENT_3D ( 'NONE', #84, #31, #22 ) ;
#35 = EDGE_LOOP ( 'NONE', ( #165 ) ) ;
#36 = AXIS2_PLACEMENT_3D ( 'NONE', #63, #6, #27 ) ;
#37 = PERSON_AND_ORGANIZATION ( #106, #45 ) ;
#38 = ORIENTED_EDGE ( 'NONE', *, *, #146, .T. ) ;
#39 = APPLICATION_PROTOCOL_DEFINITION ( 'international standard', 'config_control_design', 1994, #235 ) ;
#40 = DIRECTION ( 'NONE',  ( -3.491481338843133355E-15, 1.224646799147353207E-16, -1.000000000000000000 ) ) ;
#41 = ADVANCED_FACE ( 'NONE', ( #48 ), #70, .T. ) ;
#42 = VERTEX_POINT ( 'NONE', #166 ) ;
#43 = PLANE ( 'NONE',  #130 ) ;
#44 = CALENDAR_DATE ( 2021, 15, 11 ) ;
#45 = ORGANIZATION ( 'UNSPECIFIED', 'UNSPECIFIED', '' ) ;
#46 = DIRECTION ( 'NONE',  ( -3.491481338843133355E-15, 1.224646799147353207E-16, -1.000000000000000000 ) ) ;
#47 = FACE_OUTER_BOUND ( 'NONE', #201, .T. ) ;
#48 = FACE_OUTER_BOUND ( 'NONE', #59, .T. ) ;
#49 = CYLINDRICAL_SURFACE ( 'NONE', #96, 2.000000000000000000 ) ;
#50 = APPROVAL_ROLE ( '' ) ;
#51 = TOROIDAL_SURFACE ( 'NONE', #15, 2.899999999999998579, 2.000000000000000000 ) ;
#52 = EDGE_LOOP ( 'NONE', ( #127 ) ) ;
#53 = LOCAL_TIME ( 8, 41, 58.00000000000000000, #33 ) ;
#54 = EDGE_LOOP ( 'NONE', ( #38 ) ) ;
#55 = AXIS2_PLACEMENT_3D ( 'NONE', #103, #151, #99 ) ;
#56 = ADVANCED_BREP_SHAPE_REPRESENTATION ( '334898', ( #222, #69, #55 ), #24 ) ;
#57 = ADVANCED_FACE ( 'NONE', ( #102, #207 ), #2, .T. ) ;
#58 = AXIS2_PLACEMENT_3D ( 'NONE', #68, #12, #138 ) ;
#59 = EDGE_LOOP ( 'NONE', ( #203 ) ) ;
#60 = APPROVAL_PERSON_ORGANIZATION ( #234, #173, #140 ) ;
#61 = PLANE ( 'NONE',  #183 ) ;
#62 = VERTEX_POINT ( 'NONE', #149 ) ;
#63 = CARTESIAN_POINT ( 'NONE',  ( 1.507495281982915840E-14, 0.0000000000000000000, 4.317638090205027090 ) ) ;
#64 = AXIS2_PLACEMENT_3D ( 'NONE', #154, #227, #5 ) ;
#65 = DATE_AND_TIME ( #230, #199 ) ;
#66 = FACE_OUTER_BOUND ( 'NONE', #78, .T. ) ;
#67 = APPROVAL_PERSON_ORGANIZATION ( #133, #125, #80 ) ;
#68 = CARTESIAN_POINT ( 'NONE',  ( 2.852037788994654144E-14, 0.0000000000000000000, 8.168560883500664005 ) ) ;
#69 = MANIFOLD_SOLID_BREP ( 'Corps-Déplacer/Copier1[2]', #242 ) ;
#70 = PLANE ( 'NONE',  #200 ) ;
#71 = CIRCLE ( 'NONE', #144, 0.8999999999999998002 ) ;
#72 = CARTESIAN_POINT ( 'NONE',  ( 1.326762908760390675E-13, 1.599999999999997202, 38.00000000000000711 ) ) ;
#73 = PERSON_AND_ORGANIZATION_ROLE ( 'classification_officer' ) ;
#74 = APPROVAL_DATE_TIME ( #91, #1 ) ;
#75 = EDGE_LOOP ( 'NONE', ( #180 ) ) ;
#76 = CLOSED_SHELL ( 'NONE', ( #240, #179, #177, #95, #57, #218 ) ) ;
#77 = ORIENTED_EDGE ( 'NONE', *, *, #11, .T. ) ;
#78 = EDGE_LOOP ( 'NONE', ( #3 ) ) ;
#79 = DIRECTION ( 'NONE',  ( 1.000000000000000000, 0.0000000000000000000, -3.491481338843133355E-15 ) ) ;
#80 = APPROVAL_ROLE ( '' ) ;
#81 = CYLINDRICAL_SURFACE ( 'NONE', #191, 0.8999999999999995781 ) ;
#82 = CIRCLE ( 'NONE', #58, 2.000000000000000000 ) ;
#83 = PERSON_AND_ORGANIZATION ( #106, #45 ) ;
#84 = CARTESIAN_POINT ( 'NONE',  ( 1.312796983405018394E-13, -4.604671964794048513E-15, 37.60000000000000853 ) ) ;
#85 = UNCERTAINTY_MEASURE_WITH_UNIT (LENGTH_MEASURE( 1.000000000000000082E-05 ), #122, 'distance_accuracy_value', 'NONE');
#86 = DIRECTION ( 'NONE',  ( 1.000000000000000000, 0.0000000000000000000, -3.373073425510460825E-15 ) ) ;
#87 = DIRECTION ( 'NONE',  ( 4.275831445896958607E-31, 1.000000000000000000, 1.224646799147353207E-16 ) ) ;
#88 = EDGE_CURVE ( 'NONE', #28, #28, #135, .T. ) ;
#89 = CC_DESIGN_APPROVAL ( #1, ( #243 ) ) ;
#90 = CALENDAR_DATE ( 2021, 15, 11 ) ;
#91 = DATE_AND_TIME ( #14, #192 ) ;
#92 = PRODUCT_DEFINITION ( 'UNKNOWN', '', #32, #231 ) ;
#93 = SHAPE_DEFINITION_REPRESENTATION ( #182, #56 ) ;
#94 = DATE_AND_TIME ( #90, #53 ) ;
#95 = ADVANCED_FACE ( 'NONE', ( #25, #134 ), #51, .F. ) ;
#96 = AXIS2_PLACEMENT_3D ( 'NONE', #216, #159, #143 ) ;
#97 = AXIS2_PLACEMENT_3D ( 'NONE', #176, #40, #87 ) ;
#98 = ADVANCED_FACE ( 'NONE', ( #66 ), #61, .T. ) ;
#99 = DIRECTION ( 'NONE',  ( 1.000000000000000000, 0.0000000000000000000, 0.0000000000000000000 ) ) ;
#100 = AXIS2_PLACEMENT_3D ( 'NONE', #8, #29, #189 ) ;
#101 = COORDINATED_UNIVERSAL_TIME_OFFSET ( 1, 0, .AHEAD. ) ;
#102 = FACE_OUTER_BOUND ( 'NONE', #150, .T. ) ;
#103 = CARTESIAN_POINT ( 'NONE',  ( 0.0000000000000000000, 0.0000000000000000000, 0.0000000000000000000 ) ) ;
#104 = EDGE_CURVE ( 'NONE', #118, #118, #113, .T. ) ;
#105 = DIRECTION ( 'NONE',  ( 3.491481338843133355E-15, -1.224646799147353207E-16, 1.000000000000000000 ) ) ;
#106 = PERSON ( 'UNSPECIFIED', 'UNSPECIFIED', 'UNSPECIFIED', ('UNSPECIFIED'), ('UNSPECIFIED'), ('UNSPECIFIED') ) ;
#107 = COORDINATED_UNIVERSAL_TIME_OFFSET ( 1, 0, .AHEAD. ) ;
#108 = CARTESIAN_POINT ( 'NONE',  ( 1.312796983405018394E-13, -4.604671964794048513E-15, 37.60000000000000853 ) ) ;
#109 =( NAMED_UNIT ( * ) PLANE_ANGLE_UNIT ( ) SI_UNIT ( $, .RADIAN. ) );
#110 = DIRECTION ( 'NONE',  ( 0.0000000000000000000, 1.000000000000000000, 0.0000000000000000000 ) ) ;
#111 = FACE_OUTER_BOUND ( 'NONE', #75, .T. ) ;
#112 = CC_DESIGN_PERSON_AND_ORGANIZATION_ASSIGNMENT ( #83, #155, ( #92 ) ) ;
#113 = CIRCLE ( 'NONE', #34, 1.999999999999999556 ) ;
#114 = EDGE_LOOP ( 'NONE', ( #116 ) ) ;
#115 = PERSON_AND_ORGANIZATION_ROLE ( 'design_supplier' ) ;
#116 = ORIENTED_EDGE ( 'NONE', *, *, #136, .F. ) ;
#117 = FACE_BOUND ( 'NONE', #220, .T. ) ;
#118 = VERTEX_POINT ( 'NONE', #228 ) ;
#119 = FACE_OUTER_BOUND ( 'NONE', #114, .T. ) ;
#120 = DATE_TIME_ROLE ( 'creation_date' ) ;
#121 = DIRECTION ( 'NONE',  ( 3.491481338843133355E-15, -1.224646799147353207E-16, 1.000000000000000000 ) ) ;
#122 =( LENGTH_UNIT ( ) NAMED_UNIT ( * ) SI_UNIT ( .MILLI., .METRE. ) );
#123 = FACE_OUTER_BOUND ( 'NONE', #54, .T. ) ;
#124 = CARTESIAN_POINT ( 'NONE',  ( 1.326762908760390517E-14, -8.239936510889832712E-16, 3.799999999999999378 ) ) ;
#125 = APPROVAL ( #9, 'UNSPECIFIED' ) ;
#126 = ORIENTED_EDGE ( 'NONE', *, *, #157, .T. ) ;
#127 = ORIENTED_EDGE ( 'NONE', *, *, #104, .F. ) ;
#128 = PERSON_AND_ORGANIZATION ( #106, #45 ) ;
#129 = LOCAL_TIME ( 8, 41, 58.00000000000000000, #211 ) ;
#130 = AXIS2_PLACEMENT_3D ( 'NONE', #214, #121, #172 ) ;
#131 = PERSON_AND_ORGANIZATION_ROLE ( 'design_owner' ) ;
#132 = DIRECTION ( 'NONE',  ( 3.491481338843133355E-15, -0.0000000000000000000, 1.000000000000000000 ) ) ;
#133 = PERSON_AND_ORGANIZATION ( #106, #45 ) ;
#134 = FACE_OUTER_BOUND ( 'NONE', #35, .T. ) ;
#135 = CIRCLE ( 'NONE', #232, 0.8999999999999993561 ) ;
#136 = EDGE_CURVE ( 'NONE', #213, #213, #163, .T. ) ;
#137 = APPROVAL_DATE_TIME ( #65, #125 ) ;
#138 = DIRECTION ( 'NONE',  ( 1.000000000000000000, 0.0000000000000000000, -3.469446951953614189E-15 ) ) ;
#139 = LOCAL_TIME ( 8, 41, 58.00000000000000000, #101 ) ;
#140 = APPROVAL_ROLE ( '' ) ;
#141 = FACE_OUTER_BOUND ( 'NONE', #181, .T. ) ;
#142 = CARTESIAN_POINT ( 'NONE',  ( 1.326762908760390044E-14, 0.0000000000000000000, 3.799999999999998046 ) ) ;
#143 = DIRECTION ( 'NONE',  ( 4.275831445896958607E-31, 1.000000000000000000, 1.224646799147353207E-16 ) ) ;
#144 = AXIS2_PLACEMENT_3D ( 'NONE', #233, #169, #79 ) ;
#145 = PRODUCT ( '334898', '334898', '', ( #174 ) ) ;
#146 = EDGE_CURVE ( 'NONE', #62, #62, #82, .T. ) ;
#147 = CALENDAR_DATE ( 2021, 15, 11 ) ;
#148 = EDGE_LOOP ( 'NONE', ( #126 ) ) ;
#149 = CARTESIAN_POINT ( 'NONE',  ( 2.000000000000028866, 0.0000000000000000000, 8.168560883500656900 ) ) ;
#150 = EDGE_LOOP ( 'NONE', ( #167 ) ) ;
#151 = DIRECTION ( 'NONE',  ( 0.0000000000000000000, 0.0000000000000000000, 1.000000000000000000 ) ) ;
#152 = FACE_OUTER_BOUND ( 'NONE', #52, .T. ) ;
#153 = VERTEX_POINT ( 'NONE', #7 ) ;
#154 = CARTESIAN_POINT ( 'NONE',  ( 1.326762908760390044E-14, 0.0000000000000000000, 3.799999999999998046 ) ) ;
#155 = PERSON_AND_ORGANIZATION_ROLE ( 'creator' ) ;
#156 = FACE_OUTER_BOUND ( 'NONE', #148, .T. ) ;
#157 = EDGE_CURVE ( 'NONE', #42, #42, #71, .T. ) ;
#158 = DIRECTION ( 'NONE',  ( 3.491481338843133355E-15, -0.0000000000000000000, 1.000000000000000000 ) ) ;
#159 = DIRECTION ( 'NONE',  ( -3.491481338843133355E-15, 1.224646799147353207E-16, -1.000000000000000000 ) ) ;
#160 = CC_DESIGN_SECURITY_CLASSIFICATION ( #243, ( #32 ) ) ;
#161 = COORDINATED_UNIVERSAL_TIME_OFFSET ( 1, 0, .AHEAD. ) ;
#162 = PERSON_AND_ORGANIZATION ( #106, #45 ) ;
#163 = CIRCLE ( 'NONE', #64, 0.8999999999999993561 ) ;
#164 = CC_DESIGN_DATE_AND_TIME_ASSIGNMENT ( #94, #219, ( #243 ) ) ;
#165 = ORIENTED_EDGE ( 'NONE', *, *, #205, .F. ) ;
#166 = CARTESIAN_POINT ( 'NONE',  ( 0.8999999999999998002, 0.0000000000000000000, -3.632191924617760612E-15 ) ) ;
#167 = ORIENTED_EDGE ( 'NONE', *, *, #146, .F. ) ;
#168 = CC_DESIGN_DATE_AND_TIME_ASSIGNMENT ( #26, #120, ( #92 ) ) ;
#169 = DIRECTION ( 'NONE',  ( 3.491481338843133355E-15, -0.0000000000000000000, 1.000000000000000000 ) ) ;
#170 = DIRECTION ( 'NONE',  ( 1.000000000000000000, 0.0000000000000000000, -3.491481338843133750E-15 ) ) ;
#171 = CARTESIAN_POINT ( 'NONE',  ( 0.9000000000000125677, 0.0000000000000000000, 3.799999999999995381 ) ) ;
#172 = DIRECTION ( 'NONE',  ( -4.275831445896958607E-31, -1.000000000000000000, -1.224646799147353207E-16 ) ) ;
#173 = APPROVAL ( #21, 'UNSPECIFIED' ) ;
#174 = MECHANICAL_CONTEXT ( 'NONE', #235, 'mechanical' ) ;
#175 = APPLICATION_CONTEXT ( 'configuration controlled 3d designs of mechanical parts and assemblies' ) ;
#176 = CARTESIAN_POINT ( 'NONE',  ( 1.326762908760390675E-13, -8.377713426430119900E-31, 38.00000000000000711 ) ) ;
#177 = ADVANCED_FACE ( 'NONE', ( #111 ), #209, .F. ) ;
#178 = CC_DESIGN_APPROVAL ( #173, ( #32 ) ) ;
#179 = ADVANCED_FACE ( 'NONE', ( #117, #152 ), #20, .T. ) ;
#180 = ORIENTED_EDGE ( 'NONE', *, *, #11, .F. ) ;
#181 = EDGE_LOOP ( 'NONE', ( #19 ) ) ;
#182 = PRODUCT_DEFINITION_SHAPE ( 'NONE', 'NONE',  #92 ) ;
#183 = AXIS2_PLACEMENT_3D ( 'NONE', #124, #105, #197 ) ;
#184 = CARTESIAN_POINT ( 'NONE',  ( 1.326762908760390675E-13, -4.653657836759942730E-15, 38.00000000000000711 ) ) ;
#185 = AXIS2_PLACEMENT_3D ( 'NONE', #108, #46, #229 ) ;
#186 = EDGE_LOOP ( 'NONE', ( #202 ) ) ;
#187 = SECURITY_CLASSIFICATION_LEVEL ( 'unclassified' ) ;
#188 = APPLICATION_PROTOCOL_DEFINITION ( 'international standard', 'config_control_design', 1994, #175 ) ;
#189 = DIRECTION ( 'NONE',  ( 1.000000000000000000, 0.0000000000000000000, -3.469446951953614189E-15 ) ) ;
#190 = DIRECTION ( 'NONE',  ( 4.275831445896958607E-31, 1.000000000000000000, 1.224646799147353207E-16 ) ) ;
#191 = AXIS2_PLACEMENT_3D ( 'NONE', #212, #236, #196 ) ;
#192 = LOCAL_TIME ( 8, 41, 58.00000000000000000, #161 ) ;
#193 =( NAMED_UNIT ( * ) SI_UNIT ( $, .STERADIAN. ) SOLID_ANGLE_UNIT ( ) );
#194 = DIRECTION ( 'NONE',  ( -3.491481338843133355E-15, 1.224646799147353207E-16, -1.000000000000000000 ) ) ;
#195 = CARTESIAN_POINT ( 'NONE',  ( 0.9000000000000125677, 0.0000000000000000000, 3.799999999999995381 ) ) ;
#196 = DIRECTION ( 'NONE',  ( 1.000000000000000000, 0.0000000000000000000, -3.491481338843133355E-15 ) ) ;
#197 = DIRECTION ( 'NONE',  ( -4.275831445896958607E-31, -1.000000000000000000, -1.224646799147353207E-16 ) ) ;
#198 = PERSON_AND_ORGANIZATION ( #106, #45 ) ;
#199 = LOCAL_TIME ( 8, 41, 58.00000000000000000, #107 ) ;
#200 = AXIS2_PLACEMENT_3D ( 'NONE', #239, #10, #190 ) ;
#201 = EDGE_LOOP ( 'NONE', ( #225 ) ) ;
#202 = ORIENTED_EDGE ( 'NONE', *, *, #205, .T. ) ;
#203 = ORIENTED_EDGE ( 'NONE', *, *, #157, .F. ) ;
#204 = PERSON_AND_ORGANIZATION_ROLE ( 'creator' ) ;
#205 = EDGE_CURVE ( 'NONE', #153, #153, #238, .T. ) ;
#206 = EDGE_LOOP ( 'NONE', ( #16 ) ) ;
#207 = FACE_BOUND ( 'NONE', #186, .T. ) ;
#208 = AXIS2_PLACEMENT_3D ( 'NONE', #184, #194, #110 ) ;
#209 = PLANE ( 'NONE',  #97 ) ;
#210 = CC_DESIGN_PERSON_AND_ORGANIZATION_ASSIGNMENT ( #162, #73, ( #243 ) ) ;
#211 = COORDINATED_UNIVERSAL_TIME_OFFSET ( 1, 0, .AHEAD. ) ;
#212 = CARTESIAN_POINT ( 'NONE',  ( 0.0000000000000000000, 0.0000000000000000000, 0.0000000000000000000 ) ) ;
#213 = VERTEX_POINT ( 'NONE', #195 ) ;
#214 = CARTESIAN_POINT ( 'NONE',  ( 1.326762908760390517E-14, -8.239936510889832712E-16, 3.799999999999999378 ) ) ;
#215 = CARTESIAN_POINT ( 'NONE',  ( 1.326762908760390202E-14, 0.0000000000000000000, 3.799999999999998490 ) ) ;
#216 = CARTESIAN_POINT ( 'NONE',  ( 0.0000000000000000000, 0.0000000000000000000, 0.0000000000000000000 ) ) ;
#217 = APPROVAL_STATUS ( 'not_yet_approved' ) ;
#218 = ADVANCED_FACE ( 'NONE', ( #141 ), #43, .F. ) ;
#219 = DATE_TIME_ROLE ( 'classification_date' ) ;
#220 = EDGE_LOOP ( 'NONE', ( #77 ) ) ;
#221 = ADVANCED_FACE ( 'NONE', ( #156, #119 ), #81, .T. ) ;
#222 = MANIFOLD_SOLID_BREP ( 'Corps-Déplacer/Copier1[1]', #76 ) ;
#223 = CC_DESIGN_PERSON_AND_ORGANIZATION_ASSIGNMENT ( #128, #204, ( #32 ) ) ;
#224 = APPROVAL_DATE_TIME ( #4, #173 ) ;
#225 = ORIENTED_EDGE ( 'NONE', *, *, #104, .T. ) ;
#226 = PERSON_AND_ORGANIZATION ( #106, #45 ) ;
#227 = DIRECTION ( 'NONE',  ( 3.491481338843133355E-15, -0.0000000000000000000, 1.000000000000000000 ) ) ;
#228 = CARTESIAN_POINT ( 'NONE',  ( 1.312796983405018394E-13, 1.999999999999994893, 37.60000000000000853 ) ) ;
#229 = DIRECTION ( 'NONE',  ( 0.0000000000000000000, 1.000000000000000000, 0.0000000000000000000 ) ) ;
#230 = CALENDAR_DATE ( 2021, 15, 11 ) ;
#231 = DESIGN_CONTEXT ( 'detailed design', #175, 'design' ) ;
#232 = AXIS2_PLACEMENT_3D ( 'NONE', #142, #132, #86 ) ;
#233 = CARTESIAN_POINT ( 'NONE',  ( -1.710332578358783092E-30, 0.0000000000000000000, -4.898587196589412829E-16 ) ) ;
#234 = PERSON_AND_ORGANIZATION ( #106, #45 ) ;
#235 = APPLICATION_CONTEXT ( 'configuration controlled 3d designs of mechanical parts and assemblies' ) ;
#236 = DIRECTION ( 'NONE',  ( 3.491481338843133355E-15, -0.0000000000000000000, 1.000000000000000000 ) ) ;
#237 = CC_DESIGN_APPROVAL ( #125, ( #92 ) ) ;
#238 = CIRCLE ( 'NONE', #36, 0.9681483474218585128 ) ;
#239 = CARTESIAN_POINT ( 'NONE',  ( -4.275831445896957731E-31, 1.499759782661857608E-32, -1.224646799147353207E-16 ) ) ;
#240 = ADVANCED_FACE ( 'NONE', ( #47, #123 ), #49, .T. ) ;
#241 = VERTEX_POINT ( 'NONE', #72 ) ;
#242 = CLOSED_SHELL ( 'NONE', ( #98, #221, #41 ) ) ;
#243 = SECURITY_CLASSIFICATION ( '', '', #187 ) ;
ENDSEC;
END-ISO-10303-21;
