ISO-10303-21;
HEADER;
FILE_DESCRIPTION (( 'STEP AP203' ),
    '1' );
FILE_NAME ('334897.step',
    '2021-11-15T07:41:57',
    ( '' ),
    ( '' ),
    'SwSTEP 2.0',
    'SolidWorks 2019',
    '' );
FILE_SCHEMA (( 'CONFIG_CONTROL_DESIGN' ));
ENDSEC;

DATA;
#1 = FACE_OUTER_BOUND ( 'NONE', #40, .T. ) ;
#2 = AXIS2_PLACEMENT_3D ( 'NONE', #243, #46, #181 ) ;
#3 = CC_DESIGN_DATE_AND_TIME_ASSIGNMENT ( #203, #61, ( #36 ) ) ;
#4 = CARTESIAN_POINT ( 'NONE',  ( 0.0000000000000000000, 0.0000000000000000000, 0.0000000000000000000 ) ) ;
#5 = DIRECTION ( 'NONE',  ( 1.000000000000000000, 0.0000000000000000000, -3.469446951953614189E-15 ) ) ;
#6 = EDGE_LOOP ( 'NONE', ( #142 ) ) ;
#7 = PERSON_AND_ORGANIZATION_ROLE ( 'creator' ) ;
#8 = APPROVAL_ROLE ( '' ) ;
#9 = ORIENTED_EDGE ( 'NONE', *, *, #225, .T. ) ;
#10 = CC_DESIGN_PERSON_AND_ORGANIZATION_ASSIGNMENT ( #11, #105, ( #174 ) ) ;
#11 = PERSON_AND_ORGANIZATION ( #69, #47 ) ;
#12 = AXIS2_PLACEMENT_3D ( 'NONE', #90, #163, #110 ) ;
#13 = LOCAL_TIME ( 8, 41, 57.00000000000000000, #81 ) ;
#14 = DIRECTION ( 'NONE',  ( 1.000000000000000000, 0.0000000000000000000, -3.491481338843132961E-15 ) ) ;
#15 = APPROVAL ( #234, 'UNSPECIFIED' ) ;
#16 = DIRECTION ( 'NONE',  ( -3.491481338843133355E-15, 1.224646799147353207E-16, -1.000000000000000000 ) ) ;
#17 = AXIS2_PLACEMENT_3D ( 'NONE', #118, #92, #5 ) ;
#18 = DIRECTION ( 'NONE',  ( 1.000000000000000000, 0.0000000000000000000, -3.778743338912218926E-15 ) ) ;
#19 = CARTESIAN_POINT ( 'NONE',  ( 0.0000000000000000000, 0.0000000000000000000, 0.0000000000000000000 ) ) ;
#20 = CONICAL_SURFACE ( 'NONE', #25, 1.999999999999999556, 0.7853981633974485010 ) ;
#21 = APPROVAL_DATE_TIME ( #137, #239 ) ;
#22 = PERSON_AND_ORGANIZATION_ROLE ( 'design_owner' ) ;
#23 = VERTEX_POINT ( 'NONE', #53 ) ;
#24 = ORIENTED_EDGE ( 'NONE', *, *, #221, .T. ) ;
#25 = AXIS2_PLACEMENT_3D ( 'NONE', #218, #128, #197 ) ;
#26 = PERSON_AND_ORGANIZATION ( #69, #47 ) ;
#27 = CC_DESIGN_PERSON_AND_ORGANIZATION_ASSIGNMENT ( #54, #7, ( #36 ) ) ;
#28 = ORIENTED_EDGE ( 'NONE', *, *, #221, .F. ) ;
#29 = DIRECTION ( 'NONE',  ( 3.491481338843133355E-15, -0.0000000000000000000, 1.000000000000000000 ) ) ;
#30 = FACE_OUTER_BOUND ( 'NONE', #211, .T. ) ;
#31 = CARTESIAN_POINT ( 'NONE',  ( 0.0000000000000000000, 0.0000000000000000000, 0.0000000000000000000 ) ) ;
#32 = DIRECTION ( 'NONE',  ( -3.491481338843133355E-15, 1.224646799147353207E-16, -1.000000000000000000 ) ) ;
#33 = FACE_OUTER_BOUND ( 'NONE', #154, .T. ) ;
#34 = VERTEX_POINT ( 'NONE', #96 ) ;
#35 = VERTEX_POINT ( 'NONE', #138 ) ;
#36 = PRODUCT_DEFINITION ( 'UNKNOWN', '', #174, #158 ) ;
#37 = CC_DESIGN_APPROVAL ( #239, ( #36 ) ) ;
#38 = APPROVAL_PERSON_ORGANIZATION ( #215, #15, #44 ) ;
#39 = APPROVAL_STATUS ( 'not_yet_approved' ) ;
#40 = EDGE_LOOP ( 'NONE', ( #156 ) ) ;
#41 = ADVANCED_FACE ( 'NONE', ( #100 ), #212, .T. ) ;
#42 = EDGE_LOOP ( 'NONE', ( #9 ) ) ;
#43 = DATE_AND_TIME ( #213, #241 ) ;
#44 = APPROVAL_ROLE ( '' ) ;
#45 = AXIS2_PLACEMENT_3D ( 'NONE', #4, #150, #149 ) ;
#46 = DIRECTION ( 'NONE',  ( 3.491481338843133355E-15, -0.0000000000000000000, 1.000000000000000000 ) ) ;
#47 = ORGANIZATION ( 'UNSPECIFIED', 'UNSPECIFIED', '' ) ;
#48 = DIRECTION ( 'NONE',  ( 1.000000000000000000, 0.0000000000000000000, -3.571489509364016462E-15 ) ) ;
#49 = CARTESIAN_POINT ( 'NONE',  ( 1.326762908760390675E-13, -4.653657836759942730E-15, 38.00000000000000711 ) ) ;
#50 = DIRECTION ( 'NONE',  ( 1.000000000000000000, 0.0000000000000000000, -3.469446951953614189E-15 ) ) ;
#51 = APPLICATION_CONTEXT ( 'configuration controlled 3d designs of mechanical parts and assemblies' ) ;
#52 = AXIS2_PLACEMENT_3D ( 'NONE', #130, #198, #223 ) ;
#53 = CARTESIAN_POINT ( 'NONE',  ( 0.8500000000000121902, 0.0000000000000000000, 3.599999999999995648 ) ) ;
#54 = PERSON_AND_ORGANIZATION ( #69, #47 ) ;
#55 = CC_DESIGN_DATE_AND_TIME_ASSIGNMENT ( #106, #175, ( #113 ) ) ;
#56 = APPLICATION_PROTOCOL_DEFINITION ( 'international standard', 'config_control_design', 1994, #51 ) ;
#57 = CIRCLE ( 'NONE', #196, 1.600000000000001865 ) ;
#58 = PERSON_AND_ORGANIZATION ( #69, #47 ) ;
#59 = ADVANCED_BREP_SHAPE_REPRESENTATION ( '334897', ( #66, #65, #45 ), #151 ) ;
#60 = ORIENTED_EDGE ( 'NONE', *, *, #180, .T. ) ;
#61 = DATE_TIME_ROLE ( 'creation_date' ) ;
#62 = ADVANCED_FACE ( 'NONE', ( #1 ), #131, .F. ) ;
#63 = EDGE_LOOP ( 'NONE', ( #208 ) ) ;
#64 = AXIS2_PLACEMENT_3D ( 'NONE', #19, #220, #237 ) ;
#65 = MANIFOLD_SOLID_BREP ( 'Corps-Déplacer/Copier1[2]', #98 ) ;
#66 = MANIFOLD_SOLID_BREP ( 'Corps-Déplacer/Copier1[1]', #200 ) ;
#67 = CIRCLE ( 'NONE', #201, 0.8499999999999996447 ) ;
#68 = CC_DESIGN_APPROVAL ( #15, ( #113 ) ) ;
#69 = PERSON ( 'UNSPECIFIED', 'UNSPECIFIED', 'UNSPECIFIED', ('UNSPECIFIED'), ('UNSPECIFIED'), ('UNSPECIFIED') ) ;
#70 = DIRECTION ( 'NONE',  ( 3.491481338843133355E-15, -0.0000000000000000000, 1.000000000000000000 ) ) ;
#71 = PRODUCT ( '334897', '334897', '', ( #205 ) ) ;
#72 = FACE_OUTER_BOUND ( 'NONE', #42, .T. ) ;
#73 = FACE_OUTER_BOUND ( 'NONE', #63, .T. ) ;
#74 = CARTESIAN_POINT ( 'NONE',  ( 1.256933281983528008E-14, -7.806255641895630939E-16, 3.600000000000000089 ) ) ;
#75 = APPLICATION_CONTEXT ( 'configuration controlled 3d designs of mechanical parts and assemblies' ) ;
#76 = CARTESIAN_POINT ( 'NONE',  ( 2.000000000000028866, 0.0000000000000000000, 8.155163423879102425 ) ) ;
#77 =( NAMED_UNIT ( * ) SI_UNIT ( $, .STERADIAN. ) SOLID_ANGLE_UNIT ( ) );
#78 = ORIENTED_EDGE ( 'NONE', *, *, #185, .T. ) ;
#79 = VERTEX_POINT ( 'NONE', #115 ) ;
#80 = AXIS2_PLACEMENT_3D ( 'NONE', #222, #195, #126 ) ;
#81 = COORDINATED_UNIVERSAL_TIME_OFFSET ( 1, 0, .AHEAD. ) ;
#82 = SECURITY_CLASSIFICATION_LEVEL ( 'unclassified' ) ;
#83 = PERSON_AND_ORGANIZATION_ROLE ( 'design_supplier' ) ;
#84 = ORIENTED_EDGE ( 'NONE', *, *, #225, .F. ) ;
#85 = ADVANCED_FACE ( 'NONE', ( #145, #238 ), #136, .F. ) ;
#86 = FACE_BOUND ( 'NONE', #194, .T. ) ;
#87 = CYLINDRICAL_SURFACE ( 'NONE', #64, 0.8499999999999998668 ) ;
#88 = CARTESIAN_POINT ( 'NONE',  ( -4.275831445896957731E-31, 1.499759782661857608E-32, -1.224646799147353207E-16 ) ) ;
#89 = CIRCLE ( 'NONE', #12, 1.999999999999999556 ) ;
#90 = CARTESIAN_POINT ( 'NONE',  ( 1.312796983405018394E-13, -4.604671964794048513E-15, 37.60000000000000853 ) ) ;
#91 = CARTESIAN_POINT ( 'NONE',  ( 2.847360090968997854E-14, 0.0000000000000000000, 8.155163423879109530 ) ) ;
#92 = DIRECTION ( 'NONE',  ( 3.491481338843133355E-15, -0.0000000000000000000, 1.000000000000000000 ) ) ;
#93 = AXIS2_PLACEMENT_3D ( 'NONE', #31, #16, #161 ) ;
#94 = ADVANCED_FACE ( 'NONE', ( #72, #33 ), #87, .T. ) ;
#95 = VERTEX_POINT ( 'NONE', #226 ) ;
#96 = CARTESIAN_POINT ( 'NONE',  ( 1.326762908760390675E-13, 1.599999999999997202, 38.00000000000000711 ) ) ;
#97 = EDGE_LOOP ( 'NONE', ( #78 ) ) ;
#98 = CLOSED_SHELL ( 'NONE', ( #214, #94, #41 ) ) ;
#99 = ADVANCED_FACE ( 'NONE', ( #73 ), #199, .F. ) ;
#100 = FACE_OUTER_BOUND ( 'NONE', #217, .T. ) ;
#101 = CIRCLE ( 'NONE', #193, 0.8499999999999996447 ) ;
#102 = APPROVAL_STATUS ( 'not_yet_approved' ) ;
#103 = APPROVAL ( #102, 'UNSPECIFIED' ) ;
#104 = CONICAL_SURFACE ( 'NONE', #17, 4.000000000000000000, 0.2617993877991427465 ) ;
#105 = PERSON_AND_ORGANIZATION_ROLE ( 'creator' ) ;
#106 = DATE_AND_TIME ( #192, #13 ) ;
#107 = EDGE_LOOP ( 'NONE', ( #152 ) ) ;
#108 = CC_DESIGN_SECURITY_CLASSIFICATION ( #113, ( #174 ) ) ;
#109 = DIRECTION ( 'NONE',  ( 0.0000000000000000000, 1.000000000000000000, 0.0000000000000000000 ) ) ;
#110 = DIRECTION ( 'NONE',  ( 0.0000000000000000000, 1.000000000000000000, 0.0000000000000000000 ) ) ;
#111 = CARTESIAN_POINT ( 'NONE',  ( 1.256933281983527535E-14, 0.0000000000000000000, 3.599999999999998757 ) ) ;
#112 = DIRECTION ( 'NONE',  ( 3.491481338843133355E-15, -0.0000000000000000000, 1.000000000000000000 ) ) ;
#113 = SECURITY_CLASSIFICATION ( '', '', #82 ) ;
#114 = DIRECTION ( 'NONE',  ( 3.491481338843133355E-15, -1.224646799147353207E-16, 1.000000000000000000 ) ) ;
#115 = CARTESIAN_POINT ( 'NONE',  ( 0.9181483474218741225, 0.0000000000000000000, 4.117638090205024248 ) ) ;
#116 = LOCAL_TIME ( 8, 41, 57.00000000000000000, #117 ) ;
#117 = COORDINATED_UNIVERSAL_TIME_OFFSET ( 1, 0, .AHEAD. ) ;
#118 = CARTESIAN_POINT ( 'NONE',  ( 5.453437241017304044E-14, 0.0000000000000000000, 15.61926503901706198 ) ) ;
#119 = ORIENTED_EDGE ( 'NONE', *, *, #166, .T. ) ;
#120 = APPROVAL_ROLE ( '' ) ;
#121 = SHAPE_DEFINITION_REPRESENTATION ( #135, #59 ) ;
#122 = APPROVAL_DATE_TIME ( #43, #15 ) ;
#123 = UNCERTAINTY_MEASURE_WITH_UNIT (LENGTH_MEASURE( 1.000000000000000082E-05 ), #210, 'distance_accuracy_value', 'NONE');
#124 = CC_DESIGN_PERSON_AND_ORGANIZATION_ASSIGNMENT ( #141, #83, ( #174 ) ) ;
#125 = ORIENTED_EDGE ( 'NONE', *, *, #166, .F. ) ;
#126 = DIRECTION ( 'NONE',  ( 4.275831445896958607E-31, 1.000000000000000000, 1.224646799147353207E-16 ) ) ;
#127 = CIRCLE ( 'NONE', #159, 2.000000000000000000 ) ;
#128 = DIRECTION ( 'NONE',  ( -3.491481338843133355E-15, 1.224646799147353207E-16, -1.000000000000000000 ) ) ;
#129 = PRODUCT_RELATED_PRODUCT_CATEGORY ( 'detail', '', ( #71 ) ) ;
#130 = CARTESIAN_POINT ( 'NONE',  ( 1.256933281983528008E-14, -7.806255641895630939E-16, 3.600000000000000089 ) ) ;
#131 = PLANE ( 'NONE',  #170 ) ;
#132 = CARTESIAN_POINT ( 'NONE',  ( -1.710332578358783092E-30, 0.0000000000000000000, -4.898587196589412829E-16 ) ) ;
#133 = VERTEX_POINT ( 'NONE', #76 ) ;
#134 = CALENDAR_DATE ( 2021, 15, 11 ) ;
#135 = PRODUCT_DEFINITION_SHAPE ( 'NONE', 'NONE',  #36 ) ;
#136 = TOROIDAL_SURFACE ( 'NONE', #2, 2.849999999999998757, 1.999999999999999112 ) ;
#137 = DATE_AND_TIME ( #153, #116 ) ;
#138 = CARTESIAN_POINT ( 'NONE',  ( 1.312796983405018394E-13, 1.999999999999994893, 37.60000000000000853 ) ) ;
#139 = ADVANCED_FACE ( 'NONE', ( #146, #165 ), #182, .T. ) ;
#140 = PERSON_AND_ORGANIZATION_ROLE ( 'classification_officer' ) ;
#141 = PERSON_AND_ORGANIZATION ( #69, #47 ) ;
#142 = ORIENTED_EDGE ( 'NONE', *, *, #176, .T. ) ;
#143 = FACE_OUTER_BOUND ( 'NONE', #107, .T. ) ;
#144 = PLANE ( 'NONE',  #52 ) ;
#145 = FACE_OUTER_BOUND ( 'NONE', #6, .T. ) ;
#146 = FACE_OUTER_BOUND ( 'NONE', #97, .T. ) ;
#147 = CARTESIAN_POINT ( 'NONE',  ( 1.256933281983527535E-14, 0.0000000000000000000, 3.599999999999998757 ) ) ;
#148 = CIRCLE ( 'NONE', #219, 0.8500000000000000888 ) ;
#149 = DIRECTION ( 'NONE',  ( 1.000000000000000000, 0.0000000000000000000, 0.0000000000000000000 ) ) ;
#150 = DIRECTION ( 'NONE',  ( 0.0000000000000000000, 0.0000000000000000000, 1.000000000000000000 ) ) ;
#151 =( GEOMETRIC_REPRESENTATION_CONTEXT ( 3 ) GLOBAL_UNCERTAINTY_ASSIGNED_CONTEXT ( ( #123 ) ) GLOBAL_UNIT_ASSIGNED_CONTEXT ( ( #210, #167, #77 ) ) REPRESENTATION_CONTEXT ( 'NONE', 'WORKASPACE' ) );
#152 = ORIENTED_EDGE ( 'NONE', *, *, #185, .F. ) ;
#153 = CALENDAR_DATE ( 2021, 15, 11 ) ;
#154 = EDGE_LOOP ( 'NONE', ( #125 ) ) ;
#155 = COORDINATED_UNIVERSAL_TIME_OFFSET ( 1, 0, .AHEAD. ) ;
#156 = ORIENTED_EDGE ( 'NONE', *, *, #176, .F. ) ;
#157 = EDGE_CURVE ( 'NONE', #34, #34, #57, .T. ) ;
#158 = DESIGN_CONTEXT ( 'detailed design', #75, 'design' ) ;
#159 = AXIS2_PLACEMENT_3D ( 'NONE', #91, #29, #50 ) ;
#160 = FACE_OUTER_BOUND ( 'NONE', #231, .T. ) ;
#161 = DIRECTION ( 'NONE',  ( 4.275831445896958607E-31, 1.000000000000000000, 1.224646799147353207E-16 ) ) ;
#162 = DIRECTION ( 'NONE',  ( -3.491481338843133355E-15, 1.224646799147353207E-16, -1.000000000000000000 ) ) ;
#163 = DIRECTION ( 'NONE',  ( -3.491481338843133355E-15, 1.224646799147353207E-16, -1.000000000000000000 ) ) ;
#164 = CC_DESIGN_PERSON_AND_ORGANIZATION_ASSIGNMENT ( #26, #140, ( #113 ) ) ;
#165 = FACE_OUTER_BOUND ( 'NONE', #177, .T. ) ;
#166 = EDGE_CURVE ( 'NONE', #171, #171, #67, .T. ) ;
#167 =( NAMED_UNIT ( * ) PLANE_ANGLE_UNIT ( ) SI_UNIT ( $, .RADIAN. ) );
#168 = CARTESIAN_POINT ( 'NONE',  ( 0.8500000000000121902, 0.0000000000000000000, 3.599999999999995648 ) ) ;
#169 = EDGE_LOOP ( 'NONE', ( #60 ) ) ;
#170 = AXIS2_PLACEMENT_3D ( 'NONE', #74, #114, #242 ) ;
#171 = VERTEX_POINT ( 'NONE', #168 ) ;
#172 = ORIENTED_EDGE ( 'NONE', *, *, #180, .F. ) ;
#173 = APPROVAL_DATE_TIME ( #204, #103 ) ;
#174 = PRODUCT_DEFINITION_FORMATION_WITH_SPECIFIED_SOURCE ( 'ANY', '', #71, .NOT_KNOWN. ) ;
#175 = DATE_TIME_ROLE ( 'classification_date' ) ;
#176 = EDGE_CURVE ( 'NONE', #23, #23, #101, .T. ) ;
#177 = EDGE_LOOP ( 'NONE', ( #24 ) ) ;
#178 = CIRCLE ( 'NONE', #191, 0.9181483474218596896 ) ;
#179 = DIRECTION ( 'NONE',  ( 1.000000000000000000, 0.0000000000000000000, -3.571489509364016462E-15 ) ) ;
#180 = EDGE_CURVE ( 'NONE', #79, #79, #178, .T. ) ;
#181 = DIRECTION ( 'NONE',  ( 1.000000000000000000, 0.0000000000000000000, -3.491481338843133355E-15 ) ) ;
#182 = CYLINDRICAL_SURFACE ( 'NONE', #93, 2.000000000000000000 ) ;
#183 = LOCAL_TIME ( 8, 41, 57.00000000000000000, #207 ) ;
#184 = CARTESIAN_POINT ( 'NONE',  ( 1.437665655206053173E-14, 0.0000000000000000000, 4.117638090205026913 ) ) ;
#185 = EDGE_CURVE ( 'NONE', #35, #35, #89, .T. ) ;
#186 = DIRECTION ( 'NONE',  ( 4.275831445896958607E-31, 1.000000000000000000, 1.224646799147353207E-16 ) ) ;
#187 = PERSON_AND_ORGANIZATION ( #69, #47 ) ;
#188 = APPROVAL_PERSON_ORGANIZATION ( #58, #239, #120 ) ;
#189 = FACE_BOUND ( 'NONE', #169, .T. ) ;
#190 = PERSON_AND_ORGANIZATION ( #69, #47 ) ;
#191 = AXIS2_PLACEMENT_3D ( 'NONE', #184, #224, #18 ) ;
#192 = CALENDAR_DATE ( 2021, 15, 11 ) ;
#193 = AXIS2_PLACEMENT_3D ( 'NONE', #111, #112, #179 ) ;
#194 = EDGE_LOOP ( 'NONE', ( #228 ) ) ;
#195 = DIRECTION ( 'NONE',  ( -3.491481338843133355E-15, 1.224646799147353207E-16, -1.000000000000000000 ) ) ;
#196 = AXIS2_PLACEMENT_3D ( 'NONE', #49, #32, #109 ) ;
#197 = DIRECTION ( 'NONE',  ( 0.0000000000000000000, 1.000000000000000000, 0.0000000000000000000 ) ) ;
#198 = DIRECTION ( 'NONE',  ( 3.491481338843133355E-15, -1.224646799147353207E-16, 1.000000000000000000 ) ) ;
#199 = PLANE ( 'NONE',  #80 ) ;
#200 = CLOSED_SHELL ( 'NONE', ( #139, #229, #99, #85, #236, #62 ) ) ;
#201 = AXIS2_PLACEMENT_3D ( 'NONE', #147, #70, #48 ) ;
#202 = DIRECTION ( 'NONE',  ( 3.491481338843133355E-15, -0.0000000000000000000, 1.000000000000000000 ) ) ;
#203 = DATE_AND_TIME ( #230, #183 ) ;
#204 = DATE_AND_TIME ( #134, #206 ) ;
#205 = MECHANICAL_CONTEXT ( 'NONE', #51, 'mechanical' ) ;
#206 = LOCAL_TIME ( 8, 41, 57.00000000000000000, #155 ) ;
#207 = COORDINATED_UNIVERSAL_TIME_OFFSET ( 1, 0, .AHEAD. ) ;
#208 = ORIENTED_EDGE ( 'NONE', *, *, #157, .F. ) ;
#209 = CC_DESIGN_PERSON_AND_ORGANIZATION_ASSIGNMENT ( #187, #22, ( #71 ) ) ;
#210 =( LENGTH_UNIT ( ) NAMED_UNIT ( * ) SI_UNIT ( .MILLI., .METRE. ) );
#211 = EDGE_LOOP ( 'NONE', ( #28 ) ) ;
#212 = PLANE ( 'NONE',  #235 ) ;
#213 = CALENDAR_DATE ( 2021, 15, 11 ) ;
#214 = ADVANCED_FACE ( 'NONE', ( #160 ), #144, .T. ) ;
#215 = PERSON_AND_ORGANIZATION ( #69, #47 ) ;
#216 = APPROVAL_PERSON_ORGANIZATION ( #190, #103, #8 ) ;
#217 = EDGE_LOOP ( 'NONE', ( #84 ) ) ;
#218 = CARTESIAN_POINT ( 'NONE',  ( 1.312796983405018394E-13, -4.604671964794048513E-15, 37.60000000000000853 ) ) ;
#219 = AXIS2_PLACEMENT_3D ( 'NONE', #132, #202, #14 ) ;
#220 = DIRECTION ( 'NONE',  ( 3.491481338843133355E-15, -0.0000000000000000000, 1.000000000000000000 ) ) ;
#221 = EDGE_CURVE ( 'NONE', #133, #133, #127, .T. ) ;
#222 = CARTESIAN_POINT ( 'NONE',  ( 1.326762908760390675E-13, -8.377713426430119900E-31, 38.00000000000000711 ) ) ;
#223 = DIRECTION ( 'NONE',  ( -4.275831445896958607E-31, -1.000000000000000000, -1.224646799147353207E-16 ) ) ;
#224 = DIRECTION ( 'NONE',  ( 3.491481338843133355E-15, -0.0000000000000000000, 1.000000000000000000 ) ) ;
#225 = EDGE_CURVE ( 'NONE', #95, #95, #148, .T. ) ;
#226 = CARTESIAN_POINT ( 'NONE',  ( 0.8500000000000000888, 0.0000000000000000000, -3.457617857675604733E-15 ) ) ;
#227 = APPLICATION_PROTOCOL_DEFINITION ( 'international standard', 'config_control_design', 1994, #75 ) ;
#228 = ORIENTED_EDGE ( 'NONE', *, *, #157, .T. ) ;
#229 = ADVANCED_FACE ( 'NONE', ( #86, #143 ), #20, .T. ) ;
#230 = CALENDAR_DATE ( 2021, 15, 11 ) ;
#231 = EDGE_LOOP ( 'NONE', ( #119 ) ) ;
#232 = COORDINATED_UNIVERSAL_TIME_OFFSET ( 1, 0, .AHEAD. ) ;
#233 = EDGE_LOOP ( 'NONE', ( #172 ) ) ;
#234 = APPROVAL_STATUS ( 'not_yet_approved' ) ;
#235 = AXIS2_PLACEMENT_3D ( 'NONE', #88, #162, #186 ) ;
#236 = ADVANCED_FACE ( 'NONE', ( #30, #189 ), #104, .T. ) ;
#237 = DIRECTION ( 'NONE',  ( 1.000000000000000000, 0.0000000000000000000, -3.491481338843133355E-15 ) ) ;
#238 = FACE_OUTER_BOUND ( 'NONE', #233, .T. ) ;
#239 = APPROVAL ( #39, 'UNSPECIFIED' ) ;
#240 = CC_DESIGN_APPROVAL ( #103, ( #174 ) ) ;
#241 = LOCAL_TIME ( 8, 41, 57.00000000000000000, #232 ) ;
#242 = DIRECTION ( 'NONE',  ( -4.275831445896958607E-31, -1.000000000000000000, -1.224646799147353207E-16 ) ) ;
#243 = CARTESIAN_POINT ( 'NONE',  ( 1.256933281983527692E-14, 0.0000000000000000000, 3.599999999999999201 ) ) ;
ENDSEC;
END-ISO-10303-21;
