ISO-10303-21;
HEADER;
FILE_DESCRIPTION (( 'STEP AP203' ),
    '1' );
FILE_NAME ('334896.step',
    '2021-11-15T07:41:57',
    ( '' ),
    ( '' ),
    'SwSTEP 2.0',
    'SolidWorks 2019',
    '' );
FILE_SCHEMA (( 'CONFIG_CONTROL_DESIGN' ));
ENDSEC;

DATA;
#1 = CC_DESIGN_PERSON_AND_ORGANIZATION_ASSIGNMENT ( #107, #90, ( #39 ) ) ;
#2 = PERSON_AND_ORGANIZATION ( #56, #87 ) ;
#3 = APPROVAL_ROLE ( '' ) ;
#4 = PERSON_AND_ORGANIZATION ( #56, #87 ) ;
#5 = CARTESIAN_POINT ( 'NONE',  ( 1.187103655206665183E-14, -7.372574772901429165E-16, 3.399999999999999467 ) ) ;
#6 = CARTESIAN_POINT ( 'NONE',  ( 0.0000000000000000000, 0.0000000000000000000, 0.0000000000000000000 ) ) ;
#7 = FACE_OUTER_BOUND ( 'NONE', #96, .T. ) ;
#8 = CARTESIAN_POINT ( 'NONE',  ( 1.312796983405018394E-13, -4.604671964794048513E-15, 37.60000000000000853 ) ) ;
#9 = ORIENTED_EDGE ( 'NONE', *, *, #32, .T. ) ;
#10 = SECURITY_CLASSIFICATION ( '', '', #146 ) ;
#11 = DIRECTION ( 'NONE',  ( -3.491481338843133355E-15, 1.224646799147353207E-16, -1.000000000000000000 ) ) ;
#12 = ADVANCED_FACE ( 'NONE', ( #24 ), #168, .T. ) ;
#13 = CARTESIAN_POINT ( 'NONE',  ( 1.326762908760390675E-13, 1.599999999999997202, 38.00000000000000711 ) ) ;
#14 = VERTEX_POINT ( 'NONE', #199 ) ;
#15 = APPROVAL_DATE_TIME ( #92, #140 ) ;
#16 = APPROVAL_PERSON_ORGANIZATION ( #202, #140, #224 ) ;
#17 = EDGE_CURVE ( 'NONE', #121, #121, #163, .T. ) ;
#18 = SHAPE_DEFINITION_REPRESENTATION ( #212, #233 ) ;
#19 = AXIS2_PLACEMENT_3D ( 'NONE', #143, #11, #198 ) ;
#20 = EDGE_LOOP ( 'NONE', ( #98 ) ) ;
#21 = ORIENTED_EDGE ( 'NONE', *, *, #217, .T. ) ;
#22 = AXIS2_PLACEMENT_3D ( 'NONE', #231, #120, #134 ) ;
#23 = DIRECTION ( 'NONE',  ( 0.0000000000000000000, 1.000000000000000000, 0.0000000000000000000 ) ) ;
#24 = FACE_OUTER_BOUND ( 'NONE', #189, .T. ) ;
#25 = CARTESIAN_POINT ( 'NONE',  ( 0.0000000000000000000, 0.0000000000000000000, 0.0000000000000000000 ) ) ;
#26 = CLOSED_SHELL ( 'NONE', ( #12, #59, #169 ) ) ;
#27 = FACE_OUTER_BOUND ( 'NONE', #118, .T. ) ;
#28 = DIRECTION ( 'NONE',  ( 0.0000000000000000000, 1.000000000000000000, 0.0000000000000000000 ) ) ;
#29 = DIRECTION ( 'NONE',  ( 3.491481338843133355E-15, -0.0000000000000000000, 1.000000000000000000 ) ) ;
#30 = VERTEX_POINT ( 'NONE', #179 ) ;
#31 =( LENGTH_UNIT ( ) NAMED_UNIT ( * ) SI_UNIT ( .MILLI., .METRE. ) );
#32 = EDGE_CURVE ( 'NONE', #178, #178, #170, .T. ) ;
#33 = DATE_AND_TIME ( #76, #122 ) ;
#34 = PERSON_AND_ORGANIZATION ( #56, #87 ) ;
#35 = EDGE_CURVE ( 'NONE', #240, #240, #159, .T. ) ;
#36 = APPROVAL_STATUS ( 'not_yet_approved' ) ;
#37 = CC_DESIGN_APPROVAL ( #140, ( #10 ) ) ;
#38 = DIRECTION ( 'NONE',  ( 1.000000000000000000, 0.0000000000000000000, -3.469446951953614189E-15 ) ) ;
#39 = PRODUCT_DEFINITION ( 'UNKNOWN', '', #113, #119 ) ;
#40 = DIRECTION ( 'NONE',  ( 3.491481338843133355E-15, -0.0000000000000000000, 1.000000000000000000 ) ) ;
#41 = ORIENTED_EDGE ( 'NONE', *, *, #217, .F. ) ;
#42 = EDGE_LOOP ( 'NONE', ( #9 ) ) ;
#43 = FACE_OUTER_BOUND ( 'NONE', #154, .T. ) ;
#44 = VERTEX_POINT ( 'NONE', #13 ) ;
#45 = DIRECTION ( 'NONE',  ( 3.491481338843133355E-15, -1.224646799147353207E-16, 1.000000000000000000 ) ) ;
#46 = CARTESIAN_POINT ( 'NONE',  ( 0.8000000000000113687, 0.0000000000000000000, 3.399999999999995470 ) ) ;
#47 = VERTEX_POINT ( 'NONE', #160 ) ;
#48 = DIRECTION ( 'NONE',  ( -3.491481338843133355E-15, 1.224646799147353207E-16, -1.000000000000000000 ) ) ;
#49 = AXIS2_PLACEMENT_3D ( 'NONE', #68, #73, #218 ) ;
#50 = PERSON_AND_ORGANIZATION ( #56, #87 ) ;
#51 = DATE_AND_TIME ( #132, #219 ) ;
#52 = AXIS2_PLACEMENT_3D ( 'NONE', #5, #78, #150 ) ;
#53 = EDGE_CURVE ( 'NONE', #44, #44, #190, .T. ) ;
#54 = CC_DESIGN_APPROVAL ( #174, ( #113 ) ) ;
#55 = PERSON_AND_ORGANIZATION_ROLE ( 'classification_officer' ) ;
#56 = PERSON ( 'UNSPECIFIED', 'UNSPECIFIED', 'UNSPECIFIED', ('UNSPECIFIED'), ('UNSPECIFIED'), ('UNSPECIFIED') ) ;
#57 = AXIS2_PLACEMENT_3D ( 'NONE', #205, #234, #139 ) ;
#58 = FACE_OUTER_BOUND ( 'NONE', #136, .T. ) ;
#59 = ADVANCED_FACE ( 'NONE', ( #58, #175 ), #64, .T. ) ;
#60 = TOROIDAL_SURFACE ( 'NONE', #49, 2.799999999999999822, 2.000000000000000444 ) ;
#61 = ORIENTED_EDGE ( 'NONE', *, *, #17, .F. ) ;
#62 = MANIFOLD_SOLID_BREP ( 'Corps-Déplacer/Copier1[1]', #167 ) ;
#63 = ORIENTED_EDGE ( 'NONE', *, *, #84, .T. ) ;
#64 = CYLINDRICAL_SURFACE ( 'NONE', #235, 0.7999999999999997113 ) ;
#65 = AXIS2_PLACEMENT_3D ( 'NONE', #94, #40, #236 ) ;
#66 = UNCERTAINTY_MEASURE_WITH_UNIT (LENGTH_MEASURE( 1.000000000000000082E-05 ), #31, 'distance_accuracy_value', 'NONE');
#67 = EDGE_LOOP ( 'NONE', ( #206 ) ) ;
#68 = CARTESIAN_POINT ( 'NONE',  ( 1.187103655206664867E-14, 0.0000000000000000000, 3.399999999999998579 ) ) ;
#69 = DIRECTION ( 'NONE',  ( -4.275831445896958607E-31, -1.000000000000000000, -1.224646799147353207E-16 ) ) ;
#70 = DIRECTION ( 'NONE',  ( 4.275831445896958607E-31, 1.000000000000000000, 1.224646799147353207E-16 ) ) ;
#71 = APPROVAL_PERSON_ORGANIZATION ( #227, #174, #184 ) ;
#72 = PLANE ( 'NONE',  #19 ) ;
#73 = DIRECTION ( 'NONE',  ( 3.491481338843133355E-15, -0.0000000000000000000, 1.000000000000000000 ) ) ;
#74 = APPROVAL_DATE_TIME ( #222, #180 ) ;
#75 = MECHANICAL_CONTEXT ( 'NONE', #215, 'mechanical' ) ;
#76 = CALENDAR_DATE ( 2021, 15, 11 ) ;
#77 = APPROVAL_DATE_TIME ( #128, #174 ) ;
#78 = DIRECTION ( 'NONE',  ( 3.491481338843133355E-15, -1.224646799147353207E-16, 1.000000000000000000 ) ) ;
#79 = ORIENTED_EDGE ( 'NONE', *, *, #17, .T. ) ;
#80 = ORIENTED_EDGE ( 'NONE', *, *, #35, .F. ) ;
#81 = FACE_OUTER_BOUND ( 'NONE', #155, .T. ) ;
#82 = CC_DESIGN_APPROVAL ( #180, ( #39 ) ) ;
#83 = DIRECTION ( 'NONE',  ( 3.491481338843133355E-15, -0.0000000000000000000, 1.000000000000000000 ) ) ;
#84 = EDGE_CURVE ( 'NONE', #47, #47, #91, .T. ) ;
#85 = DIRECTION ( 'NONE',  ( 4.275831445896958607E-31, 1.000000000000000000, 1.224646799147353207E-16 ) ) ;
#86 = DIRECTION ( 'NONE',  ( -3.491481338843133355E-15, 1.224646799147353207E-16, -1.000000000000000000 ) ) ;
#87 = ORGANIZATION ( 'UNSPECIFIED', 'UNSPECIFIED', '' ) ;
#88 = CC_DESIGN_PERSON_AND_ORGANIZATION_ASSIGNMENT ( #2, #200, ( #113 ) ) ;
#89 = APPLICATION_PROTOCOL_DEFINITION ( 'international standard', 'config_control_design', 1994, #211 ) ;
#90 = PERSON_AND_ORGANIZATION_ROLE ( 'creator' ) ;
#91 = CIRCLE ( 'NONE', #138, 1.999999999999999556 ) ;
#92 = DATE_AND_TIME ( #182, #99 ) ;
#93 = ORIENTED_EDGE ( 'NONE', *, *, #53, .T. ) ;
#94 = CARTESIAN_POINT ( 'NONE',  ( 2.842682392943342194E-14, 0.0000000000000000000, 8.141765964257555055 ) ) ;
#95 = CC_DESIGN_DATE_AND_TIME_ASSIGNMENT ( #51, #203, ( #39 ) ) ;
#96 = EDGE_LOOP ( 'NONE', ( #80 ) ) ;
#97 = DIRECTION ( 'NONE',  ( 1.000000000000000000, 0.0000000000000000000, -3.491481338843133750E-15 ) ) ;
#98 = ORIENTED_EDGE ( 'NONE', *, *, #84, .F. ) ;
#99 = LOCAL_TIME ( 8, 41, 57.00000000000000000, #185 ) ;
#100 = ADVANCED_FACE ( 'NONE', ( #7, #137 ), #237, .T. ) ;
#101 = DIRECTION ( 'NONE',  ( 1.000000000000000000, 0.0000000000000000000, -3.252606517456515274E-15 ) ) ;
#102 = CARTESIAN_POINT ( 'NONE',  ( -4.275831445896957731E-31, 1.499759782661857608E-32, -1.224646799147353207E-16 ) ) ;
#103 = ADVANCED_FACE ( 'NONE', ( #81, #43 ), #194, .T. ) ;
#104 =( GEOMETRIC_REPRESENTATION_CONTEXT ( 3 ) GLOBAL_UNCERTAINTY_ASSIGNED_CONTEXT ( ( #66 ) ) GLOBAL_UNIT_ASSIGNED_CONTEXT ( ( #31, #106, #181 ) ) REPRESENTATION_CONTEXT ( 'NONE', 'WORKASPACE' ) );
#105 = FACE_OUTER_BOUND ( 'NONE', #20, .T. ) ;
#106 =( NAMED_UNIT ( * ) PLANE_ANGLE_UNIT ( ) SI_UNIT ( $, .RADIAN. ) );
#107 = PERSON_AND_ORGANIZATION ( #56, #87 ) ;
#108 = CALENDAR_DATE ( 2021, 15, 11 ) ;
#109 = AXIS2_PLACEMENT_3D ( 'NONE', #242, #158, #101 ) ;
#110 = APPROVAL_STATUS ( 'not_yet_approved' ) ;
#111 = ADVANCED_FACE ( 'NONE', ( #238, #105 ), #230, .T. ) ;
#112 = COORDINATED_UNIVERSAL_TIME_OFFSET ( 1, 0, .AHEAD. ) ;
#113 = PRODUCT_DEFINITION_FORMATION_WITH_SPECIFIED_SOURCE ( 'ANY', '', #191, .NOT_KNOWN. ) ;
#114 = EDGE_LOOP ( 'NONE', ( #117 ) ) ;
#115 = EDGE_LOOP ( 'NONE', ( #41 ) ) ;
#116 = AXIS2_PLACEMENT_3D ( 'NONE', #207, #209, #23 ) ;
#117 = ORIENTED_EDGE ( 'NONE', *, *, #147, .T. ) ;
#118 = EDGE_LOOP ( 'NONE', ( #171 ) ) ;
#119 = DESIGN_CONTEXT ( 'detailed design', #211, 'design' ) ;
#120 = DIRECTION ( 'NONE',  ( 3.491481338843133355E-15, -0.0000000000000000000, 1.000000000000000000 ) ) ;
#121 = VERTEX_POINT ( 'NONE', #144 ) ;
#122 = LOCAL_TIME ( 8, 41, 57.00000000000000000, #112 ) ;
#123 = APPLICATION_PROTOCOL_DEFINITION ( 'international standard', 'config_control_design', 1994, #215 ) ;
#124 = CARTESIAN_POINT ( 'NONE',  ( 1.312796983405018394E-13, -4.604671964794048513E-15, 37.60000000000000853 ) ) ;
#125 = FACE_OUTER_BOUND ( 'NONE', #229, .T. ) ;
#126 = AXIS2_PLACEMENT_3D ( 'NONE', #25, #188, #70 ) ;
#127 = FACE_OUTER_BOUND ( 'NONE', #67, .T. ) ;
#128 = DATE_AND_TIME ( #108, #131 ) ;
#129 = COORDINATED_UNIVERSAL_TIME_OFFSET ( 1, 0, .AHEAD. ) ;
#130 = PERSON_AND_ORGANIZATION_ROLE ( 'design_owner' ) ;
#131 = LOCAL_TIME ( 8, 41, 57.00000000000000000, #228 ) ;
#132 = CALENDAR_DATE ( 2021, 15, 11 ) ;
#133 = DIRECTION ( 'NONE',  ( -3.491481338843133355E-15, 1.224646799147353207E-16, -1.000000000000000000 ) ) ;
#134 = DIRECTION ( 'NONE',  ( 1.000000000000000000, 0.0000000000000000000, -3.491481338843133750E-15 ) ) ;
#135 = PRODUCT_RELATED_PRODUCT_CATEGORY ( 'detail', '', ( #191 ) ) ;
#136 = EDGE_LOOP ( 'NONE', ( #79 ) ) ;
#137 = FACE_BOUND ( 'NONE', #114, .T. ) ;
#138 = AXIS2_PLACEMENT_3D ( 'NONE', #8, #133, #173 ) ;
#139 = DIRECTION ( 'NONE',  ( 1.000000000000000000, 0.0000000000000000000, -3.252606517456515274E-15 ) ) ;
#140 = APPROVAL ( #110, 'UNSPECIFIED' ) ;
#141 = CARTESIAN_POINT ( 'NONE',  ( 1.187103655206665183E-14, -7.372574772901429165E-16, 3.399999999999999467 ) ) ;
#142 = AXIS2_PLACEMENT_3D ( 'NONE', #186, #165, #166 ) ;
#143 = CARTESIAN_POINT ( 'NONE',  ( 1.326762908760390675E-13, -8.377713426430119900E-31, 38.00000000000000711 ) ) ;
#144 = CARTESIAN_POINT ( 'NONE',  ( 0.7999999999999999334, 0.0000000000000000000, -3.283043790733448066E-15 ) ) ;
#145 = DIRECTION ( 'NONE',  ( 1.000000000000000000, 0.0000000000000000000, -2.997281768366690061E-15 ) ) ;
#146 = SECURITY_CLASSIFICATION_LEVEL ( 'unclassified' ) ;
#147 = EDGE_CURVE ( 'NONE', #30, #30, #226, .T. ) ;
#148 = ADVANCED_FACE ( 'NONE', ( #125 ), #72, .F. ) ;
#149 = COORDINATED_UNIVERSAL_TIME_OFFSET ( 1, 0, .AHEAD. ) ;
#150 = DIRECTION ( 'NONE',  ( -4.275831445896958607E-31, -1.000000000000000000, -1.224646799147353207E-16 ) ) ;
#151 = CC_DESIGN_SECURITY_CLASSIFICATION ( #10, ( #113 ) ) ;
#152 = CC_DESIGN_PERSON_AND_ORGANIZATION_ASSIGNMENT ( #34, #55, ( #10 ) ) ;
#153 = DIRECTION ( 'NONE',  ( 3.491481338843133355E-15, -0.0000000000000000000, 1.000000000000000000 ) ) ;
#154 = EDGE_LOOP ( 'NONE', ( #221 ) ) ;
#155 = EDGE_LOOP ( 'NONE', ( #63 ) ) ;
#156 = CIRCLE ( 'NONE', #109, 0.7999999999999994893 ) ;
#157 = FACE_OUTER_BOUND ( 'NONE', #232, .T. ) ;
#158 = DIRECTION ( 'NONE',  ( 3.491481338843133355E-15, -0.0000000000000000000, 1.000000000000000000 ) ) ;
#159 = CIRCLE ( 'NONE', #65, 2.000000000000000000 ) ;
#160 = CARTESIAN_POINT ( 'NONE',  ( 1.312796983405018394E-13, 1.999999999999994893, 37.60000000000000853 ) ) ;
#161 = PERSON_AND_ORGANIZATION_ROLE ( 'design_supplier' ) ;
#162 = ADVANCED_FACE ( 'NONE', ( #214, #127 ), #60, .F. ) ;
#163 = CIRCLE ( 'NONE', #22, 0.7999999999999999334 ) ;
#164 = AXIS2_PLACEMENT_3D ( 'NONE', #124, #86, #28 ) ;
#165 = DIRECTION ( 'NONE',  ( 0.0000000000000000000, 0.0000000000000000000, 1.000000000000000000 ) ) ;
#166 = DIRECTION ( 'NONE',  ( 1.000000000000000000, 0.0000000000000000000, 0.0000000000000000000 ) ) ;
#167 = CLOSED_SHELL ( 'NONE', ( #103, #111, #148, #162, #100, #239 ) ) ;
#168 = PLANE ( 'NONE',  #52 ) ;
#169 = ADVANCED_FACE ( 'NONE', ( #157 ), #197, .T. ) ;
#170 = CIRCLE ( 'NONE', #57, 0.7999999999999994893 ) ;
#171 = ORIENTED_EDGE ( 'NONE', *, *, #32, .F. ) ;
#172 = AXIS2_PLACEMENT_3D ( 'NONE', #241, #29, #145 ) ;
#173 = DIRECTION ( 'NONE',  ( 0.0000000000000000000, 1.000000000000000000, 0.0000000000000000000 ) ) ;
#174 = APPROVAL ( #36, 'UNSPECIFIED' ) ;
#175 = FACE_OUTER_BOUND ( 'NONE', #115, .T. ) ;
#176 = ORIENTED_EDGE ( 'NONE', *, *, #53, .F. ) ;
#177 = CC_DESIGN_DATE_AND_TIME_ASSIGNMENT ( #33, #220, ( #10 ) ) ;
#178 = VERTEX_POINT ( 'NONE', #46 ) ;
#179 = CARTESIAN_POINT ( 'NONE',  ( 0.8681483474218731899, 0.0000000000000000000, 3.917638090205024071 ) ) ;
#180 = APPROVAL ( #243, 'UNSPECIFIED' ) ;
#181 =( NAMED_UNIT ( * ) SI_UNIT ( $, .STERADIAN. ) SOLID_ANGLE_UNIT ( ) );
#182 = CALENDAR_DATE ( 2021, 15, 11 ) ;
#183 = PERSON_AND_ORGANIZATION ( #56, #87 ) ;
#184 = APPROVAL_ROLE ( '' ) ;
#185 = COORDINATED_UNIVERSAL_TIME_OFFSET ( 1, 0, .AHEAD. ) ;
#186 = CARTESIAN_POINT ( 'NONE',  ( 0.0000000000000000000, 0.0000000000000000000, 0.0000000000000000000 ) ) ;
#187 = APPROVAL_PERSON_ORGANIZATION ( #50, #180, #3 ) ;
#188 = DIRECTION ( 'NONE',  ( -3.491481338843133355E-15, 1.224646799147353207E-16, -1.000000000000000000 ) ) ;
#189 = EDGE_LOOP ( 'NONE', ( #21 ) ) ;
#190 = CIRCLE ( 'NONE', #116, 1.600000000000001865 ) ;
#191 = PRODUCT ( '334896', '334896', '', ( #75 ) ) ;
#192 = AXIS2_PLACEMENT_3D ( 'NONE', #102, #48, #85 ) ;
#193 = CARTESIAN_POINT ( 'NONE',  ( 5.448759542991647123E-14, 0.0000000000000000000, 15.60586757939550573 ) ) ;
#194 = CYLINDRICAL_SURFACE ( 'NONE', #126, 2.000000000000000000 ) ;
#195 = LOCAL_TIME ( 8, 41, 57.00000000000000000, #129 ) ;
#196 = CC_DESIGN_PERSON_AND_ORGANIZATION_ASSIGNMENT ( #183, #161, ( #113 ) ) ;
#197 = PLANE ( 'NONE',  #192 ) ;
#198 = DIRECTION ( 'NONE',  ( 4.275831445896958607E-31, 1.000000000000000000, 1.224646799147353207E-16 ) ) ;
#199 = CARTESIAN_POINT ( 'NONE',  ( 0.8000000000000113687, 0.0000000000000000000, 3.399999999999995470 ) ) ;
#200 = PERSON_AND_ORGANIZATION_ROLE ( 'creator' ) ;
#201 = CALENDAR_DATE ( 2021, 15, 11 ) ;
#202 = PERSON_AND_ORGANIZATION ( #56, #87 ) ;
#203 = DATE_TIME_ROLE ( 'creation_date' ) ;
#204 = EDGE_LOOP ( 'NONE', ( #93 ) ) ;
#205 = CARTESIAN_POINT ( 'NONE',  ( 1.187103655206664710E-14, 0.0000000000000000000, 3.399999999999998135 ) ) ;
#206 = ORIENTED_EDGE ( 'NONE', *, *, #147, .F. ) ;
#207 = CARTESIAN_POINT ( 'NONE',  ( 1.326762908760390675E-13, -4.653657836759942730E-15, 38.00000000000000711 ) ) ;
#208 = AXIS2_PLACEMENT_3D ( 'NONE', #141, #45, #69 ) ;
#209 = DIRECTION ( 'NONE',  ( -3.491481338843133355E-15, 1.224646799147353207E-16, -1.000000000000000000 ) ) ;
#210 = PLANE ( 'NONE',  #208 ) ;
#211 = APPLICATION_CONTEXT ( 'configuration controlled 3d designs of mechanical parts and assemblies' ) ;
#212 = PRODUCT_DEFINITION_SHAPE ( 'NONE', 'NONE',  #39 ) ;
#213 = AXIS2_PLACEMENT_3D ( 'NONE', #193, #83, #38 ) ;
#214 = FACE_OUTER_BOUND ( 'NONE', #42, .T. ) ;
#215 = APPLICATION_CONTEXT ( 'configuration controlled 3d designs of mechanical parts and assemblies' ) ;
#216 = CARTESIAN_POINT ( 'NONE',  ( 2.000000000000028866, 0.0000000000000000000, 8.141765964257547950 ) ) ;
#217 = EDGE_CURVE ( 'NONE', #14, #14, #156, .T. ) ;
#218 = DIRECTION ( 'NONE',  ( 1.000000000000000000, 0.0000000000000000000, -3.491481338843133355E-15 ) ) ;
#219 = LOCAL_TIME ( 8, 41, 57.00000000000000000, #149 ) ;
#220 = DATE_TIME_ROLE ( 'classification_date' ) ;
#221 = ORIENTED_EDGE ( 'NONE', *, *, #35, .T. ) ;
#222 = DATE_AND_TIME ( #201, #195 ) ;
#223 = CC_DESIGN_PERSON_AND_ORGANIZATION_ASSIGNMENT ( #4, #130, ( #191 ) ) ;
#224 = APPROVAL_ROLE ( '' ) ;
#225 = MANIFOLD_SOLID_BREP ( 'Corps-Déplacer/Copier1[2]', #26 ) ;
#226 = CIRCLE ( 'NONE', #172, 0.8681483474218595342 ) ;
#227 = PERSON_AND_ORGANIZATION ( #56, #87 ) ;
#228 = COORDINATED_UNIVERSAL_TIME_OFFSET ( 1, 0, .AHEAD. ) ;
#229 = EDGE_LOOP ( 'NONE', ( #176 ) ) ;
#230 = CONICAL_SURFACE ( 'NONE', #164, 1.999999999999999556, 0.7853981633974485010 ) ;
#231 = CARTESIAN_POINT ( 'NONE',  ( -1.710332578358783092E-30, 0.0000000000000000000, -4.898587196589412829E-16 ) ) ;
#232 = EDGE_LOOP ( 'NONE', ( #61 ) ) ;
#233 = ADVANCED_BREP_SHAPE_REPRESENTATION ( '334896', ( #62, #225, #142 ), #104 ) ;
#234 = DIRECTION ( 'NONE',  ( 3.491481338843133355E-15, -0.0000000000000000000, 1.000000000000000000 ) ) ;
#235 = AXIS2_PLACEMENT_3D ( 'NONE', #6, #153, #97 ) ;
#236 = DIRECTION ( 'NONE',  ( 1.000000000000000000, 0.0000000000000000000, -3.469446951953614189E-15 ) ) ;
#237 = CONICAL_SURFACE ( 'NONE', #213, 4.000000000000000000, 0.2617993877991428575 ) ;
#238 = FACE_BOUND ( 'NONE', #204, .T. ) ;
#239 = ADVANCED_FACE ( 'NONE', ( #27 ), #210, .F. ) ;
#240 = VERTEX_POINT ( 'NONE', #216 ) ;
#241 = CARTESIAN_POINT ( 'NONE',  ( 1.367836028429190348E-14, 0.0000000000000000000, 3.917638090205026735 ) ) ;
#242 = CARTESIAN_POINT ( 'NONE',  ( 1.187103655206664710E-14, 0.0000000000000000000, 3.399999999999998135 ) ) ;
#243 = APPROVAL_STATUS ( 'not_yet_approved' ) ;
ENDSEC;
END-ISO-10303-21;
