ISO-10303-21;
HEADER;
FILE_DESCRIPTION (( 'STEP AP203' ),
    '1' );
FILE_NAME ('334895.step',
    '2021-11-15T07:41:56',
    ( '' ),
    ( '' ),
    'SwSTEP 2.0',
    'SolidWorks 2019',
    '' );
FILE_SCHEMA (( 'CONFIG_CONTROL_DESIGN' ));
ENDSEC;

DATA;
#1 = EDGE_LOOP ( 'NONE', ( #8 ) ) ;
#2 = PRODUCT_DEFINITION ( 'UNKNOWN', '', #141, #75 ) ;
#3 = CALENDAR_DATE ( 2021, 15, 11 ) ;
#4 = CARTESIAN_POINT ( 'NONE',  ( 1.326762908760390675E-13, 1.599999999999997202, 38.00000000000000711 ) ) ;
#5 = EDGE_LOOP ( 'NONE', ( #140 ) ) ;
#6 = DIRECTION ( 'NONE',  ( 1.000000000000000000, 0.0000000000000000000, 0.0000000000000000000 ) ) ;
#7 = APPROVAL_DATE_TIME ( #179, #98 ) ;
#8 = ORIENTED_EDGE ( 'NONE', *, *, #31, .T. ) ;
#9 = CARTESIAN_POINT ( 'NONE',  ( 1.326762908760390675E-13, -4.653657836759942730E-15, 38.00000000000000711 ) ) ;
#10 = AXIS2_PLACEMENT_3D ( 'NONE', #171, #240, #226 ) ;
#11 = DATE_TIME_ROLE ( 'classification_date' ) ;
#12 = CONICAL_SURFACE ( 'NONE', #117, 1.999999999999999556, 0.7853981633974485010 ) ;
#13 = PLANE ( 'NONE',  #102 ) ;
#14 = DIRECTION ( 'NONE',  ( -3.491481338843133355E-15, 1.224646799147353207E-16, -1.000000000000000000 ) ) ;
#15 = CARTESIAN_POINT ( 'NONE',  ( 2.838004694917687166E-14, 0.0000000000000000000, 8.128368504636004133 ) ) ;
#16 = AXIS2_PLACEMENT_3D ( 'NONE', #174, #217, #65 ) ;
#17 = EDGE_LOOP ( 'NONE', ( #196 ) ) ;
#18 = DIRECTION ( 'NONE',  ( 4.275831445896958607E-31, 1.000000000000000000, 1.224646799147353207E-16 ) ) ;
#19 = ORIENTED_EDGE ( 'NONE', *, *, #39, .T. ) ;
#20 = FACE_OUTER_BOUND ( 'NONE', #17, .T. ) ;
#21 = EDGE_LOOP ( 'NONE', ( #103 ) ) ;
#22 = CARTESIAN_POINT ( 'NONE',  ( 1.326762908760390675E-13, -8.377713426430119900E-31, 38.00000000000000711 ) ) ;
#23 = EDGE_LOOP ( 'NONE', ( #19 ) ) ;
#24 = CC_DESIGN_PERSON_AND_ORGANIZATION_ASSIGNMENT ( #48, #205, ( #141 ) ) ;
#25 = SHAPE_DEFINITION_REPRESENTATION ( #92, #101 ) ;
#26 = VERTEX_POINT ( 'NONE', #87 ) ;
#27 = PERSON_AND_ORGANIZATION ( #199, #93 ) ;
#28 = DIRECTION ( 'NONE',  ( -3.491481338843133355E-15, 1.224646799147353207E-16, -1.000000000000000000 ) ) ;
#29 = PERSON_AND_ORGANIZATION ( #199, #93 ) ;
#30 = APPROVAL_DATE_TIME ( #200, #148 ) ;
#31 = EDGE_CURVE ( 'NONE', #181, #181, #36, .T. ) ;
#32 = AXIS2_PLACEMENT_3D ( 'NONE', #80, #14, #59 ) ;
#33 = DIRECTION ( 'NONE',  ( 1.000000000000000000, 0.0000000000000000000, -3.491481338843133355E-15 ) ) ;
#34 = DIRECTION ( 'NONE',  ( -3.491481338843133355E-15, 1.224646799147353207E-16, -1.000000000000000000 ) ) ;
#35 = ORIENTED_EDGE ( 'NONE', *, *, #104, .T. ) ;
#36 = CIRCLE ( 'NONE', #76, 1.600000000000001865 ) ;
#37 = DIRECTION ( 'NONE',  ( 3.491481338843133355E-15, -0.0000000000000000000, 1.000000000000000000 ) ) ;
#38 = PLANE ( 'NONE',  #224 ) ;
#39 = EDGE_CURVE ( 'NONE', #108, #108, #176, .T. ) ;
#40 = EDGE_LOOP ( 'NONE', ( #51 ) ) ;
#41 = AXIS2_PLACEMENT_3D ( 'NONE', #184, #113, #208 ) ;
#42 = FACE_OUTER_BOUND ( 'NONE', #23, .T. ) ;
#43 = CC_DESIGN_PERSON_AND_ORGANIZATION_ASSIGNMENT ( #165, #219, ( #2 ) ) ;
#44 = PERSON_AND_ORGANIZATION ( #199, #93 ) ;
#45 = APPROVAL_STATUS ( 'not_yet_approved' ) ;
#46 = AXIS2_PLACEMENT_3D ( 'NONE', #210, #237, #73 ) ;
#47 = CLOSED_SHELL ( 'NONE', ( #170, #239, #81 ) ) ;
#48 = PERSON_AND_ORGANIZATION ( #199, #93 ) ;
#49 = COORDINATED_UNIVERSAL_TIME_OFFSET ( 1, 0, .AHEAD. ) ;
#50 = EDGE_CURVE ( 'NONE', #177, #177, #85, .T. ) ;
#51 = ORIENTED_EDGE ( 'NONE', *, *, #50, .T. ) ;
#52 = CALENDAR_DATE ( 2021, 15, 11 ) ;
#53 = DIRECTION ( 'NONE',  ( 1.000000000000000000, 0.0000000000000000000, -3.491481338843133355E-15 ) ) ;
#54 =( NAMED_UNIT ( * ) PLANE_ANGLE_UNIT ( ) SI_UNIT ( $, .RADIAN. ) );
#55 = SECURITY_CLASSIFICATION ( '', '', #183 ) ;
#56 = APPROVAL ( #45, 'UNSPECIFIED' ) ;
#57 = CARTESIAN_POINT ( 'NONE',  ( 0.0000000000000000000, 0.0000000000000000000, 0.0000000000000000000 ) ) ;
#58 = CARTESIAN_POINT ( 'NONE',  ( 1.298006401652327838E-14, 0.0000000000000000000, 3.717638090205027446 ) ) ;
#59 = DIRECTION ( 'NONE',  ( 4.275831445896958607E-31, 1.000000000000000000, 1.224646799147353207E-16 ) ) ;
#60 = DIRECTION ( 'NONE',  ( 0.0000000000000000000, 1.000000000000000000, 0.0000000000000000000 ) ) ;
#61 = AXIS2_PLACEMENT_3D ( 'NONE', #57, #212, #33 ) ;
#62 = CARTESIAN_POINT ( 'NONE',  ( 1.117274028429802200E-14, 0.0000000000000000000, 3.199999999999998401 ) ) ;
#63 = MANIFOLD_SOLID_BREP ( 'Corps-Déplacer/Copier1[1]', #189 ) ;
#64 = EDGE_CURVE ( 'NONE', #201, #201, #243, .T. ) ;
#65 = DIRECTION ( 'NONE',  ( -4.275831445896958607E-31, -1.000000000000000000, -1.224646799147353207E-16 ) ) ;
#66 = DATE_TIME_ROLE ( 'creation_date' ) ;
#67 = PERSON_AND_ORGANIZATION ( #199, #93 ) ;
#68 = LOCAL_TIME ( 8, 41, 56.00000000000000000, #144 ) ;
#69 = AXIS2_PLACEMENT_3D ( 'NONE', #191, #79, #131 ) ;
#70 = FACE_BOUND ( 'NONE', #123, .T. ) ;
#71 = ORIENTED_EDGE ( 'NONE', *, *, #31, .F. ) ;
#72 = APPROVAL_DATE_TIME ( #168, #56 ) ;
#73 = DIRECTION ( 'NONE',  ( 1.000000000000000000, 0.0000000000000000000, -3.469446951953617344E-15 ) ) ;
#74 = CC_DESIGN_APPROVAL ( #148, ( #55 ) ) ;
#75 = DESIGN_CONTEXT ( 'detailed design', #194, 'design' ) ;
#76 = AXIS2_PLACEMENT_3D ( 'NONE', #9, #167, #185 ) ;
#77 = AXIS2_PLACEMENT_3D ( 'NONE', #115, #112, #53 ) ;
#78 = DIRECTION ( 'NONE',  ( 1.000000000000000000, 0.0000000000000000000, -3.469446951953617344E-15 ) ) ;
#79 = DIRECTION ( 'NONE',  ( -3.491481338843133355E-15, 1.224646799147353207E-16, -1.000000000000000000 ) ) ;
#80 = CARTESIAN_POINT ( 'NONE',  ( 0.0000000000000000000, 0.0000000000000000000, 0.0000000000000000000 ) ) ;
#81 = ADVANCED_FACE ( 'NONE', ( #150 ), #13, .T. ) ;
#82 = FACE_OUTER_BOUND ( 'NONE', #122, .T. ) ;
#83 = ORIENTED_EDGE ( 'NONE', *, *, #190, .T. ) ;
#84 = PLANE ( 'NONE',  #16 ) ;
#85 = CIRCLE ( 'NONE', #118, 0.7499999999999993339 ) ;
#86 = ORIENTED_EDGE ( 'NONE', *, *, #94, .F. ) ;
#87 = CARTESIAN_POINT ( 'NONE',  ( 1.312796983405018394E-13, 1.999999999999994893, 37.60000000000000853 ) ) ;
#88 = CARTESIAN_POINT ( 'NONE',  ( 0.7499999999999997780, 0.0000000000000000000, -3.108469723791290609E-15 ) ) ;
#89 = APPLICATION_PROTOCOL_DEFINITION ( 'international standard', 'config_control_design', 1994, #194 ) ;
#90 = CIRCLE ( 'NONE', #69, 1.999999999999999556 ) ;
#91 = CARTESIAN_POINT ( 'NONE',  ( 0.0000000000000000000, 0.0000000000000000000, 0.0000000000000000000 ) ) ;
#92 = PRODUCT_DEFINITION_SHAPE ( 'NONE', 'NONE',  #2 ) ;
#93 = ORGANIZATION ( 'UNSPECIFIED', 'UNSPECIFIED', '' ) ;
#94 = EDGE_CURVE ( 'NONE', #26, #26, #90, .T. ) ;
#95 = FACE_OUTER_BOUND ( 'NONE', #152, .T. ) ;
#96 = CC_DESIGN_APPROVAL ( #56, ( #141 ) ) ;
#97 = DIRECTION ( 'NONE',  ( 1.000000000000000000, 0.0000000000000000000, -3.469446951953614189E-15 ) ) ;
#98 = APPROVAL ( #145, 'UNSPECIFIED' ) ;
#99 = FACE_OUTER_BOUND ( 'NONE', #180, .T. ) ;
#100 = DIRECTION ( 'NONE',  ( -3.491481338843133355E-15, 1.224646799147353207E-16, -1.000000000000000000 ) ) ;
#101 = ADVANCED_BREP_SHAPE_REPRESENTATION ( '334895', ( #63, #223, #202 ), #126 ) ;
#102 = AXIS2_PLACEMENT_3D ( 'NONE', #213, #34, #119 ) ;
#103 = ORIENTED_EDGE ( 'NONE', *, *, #64, .F. ) ;
#104 = EDGE_CURVE ( 'NONE', #204, #204, #107, .T. ) ;
#105 = ORIENTED_EDGE ( 'NONE', *, *, #190, .F. ) ;
#106 = CALENDAR_DATE ( 2021, 15, 11 ) ;
#107 = CIRCLE ( 'NONE', #46, 0.7499999999999993339 ) ;
#108 = VERTEX_POINT ( 'NONE', #88 ) ;
#109 = DATE_AND_TIME ( #52, #175 ) ;
#110 = PRODUCT_RELATED_PRODUCT_CATEGORY ( 'detail', '', ( #169 ) ) ;
#111 = DATE_AND_TIME ( #106, #68 ) ;
#112 = DIRECTION ( 'NONE',  ( 3.491481338843133355E-15, -0.0000000000000000000, 1.000000000000000000 ) ) ;
#113 = DIRECTION ( 'NONE',  ( 3.491481338843133355E-15, -0.0000000000000000000, 1.000000000000000000 ) ) ;
#114 = CC_DESIGN_DATE_AND_TIME_ASSIGNMENT ( #111, #11, ( #55 ) ) ;
#115 = CARTESIAN_POINT ( 'NONE',  ( -1.710332578358783092E-30, 0.0000000000000000000, -4.898587196589412829E-16 ) ) ;
#116 = APPROVAL_PERSON_ORGANIZATION ( #67, #56, #236 ) ;
#117 = AXIS2_PLACEMENT_3D ( 'NONE', #209, #100, #60 ) ;
#118 = AXIS2_PLACEMENT_3D ( 'NONE', #62, #225, #78 ) ;
#119 = DIRECTION ( 'NONE',  ( 4.275831445896958607E-31, 1.000000000000000000, 1.224646799147353207E-16 ) ) ;
#120 = FACE_OUTER_BOUND ( 'NONE', #195, .T. ) ;
#121 = CC_DESIGN_PERSON_AND_ORGANIZATION_ASSIGNMENT ( #164, #127, ( #169 ) ) ;
#122 = EDGE_LOOP ( 'NONE', ( #35 ) ) ;
#123 = EDGE_LOOP ( 'NONE', ( #173 ) ) ;
#124 = APPROVAL_ROLE ( '' ) ;
#125 = ADVANCED_FACE ( 'NONE', ( #147, #222 ), #12, .T. ) ;
#126 =( GEOMETRIC_REPRESENTATION_CONTEXT ( 3 ) GLOBAL_UNCERTAINTY_ASSIGNED_CONTEXT ( ( #187 ) ) GLOBAL_UNIT_ASSIGNED_CONTEXT ( ( #182, #54, #151 ) ) REPRESENTATION_CONTEXT ( 'NONE', 'WORKASPACE' ) );
#127 = PERSON_AND_ORGANIZATION_ROLE ( 'design_owner' ) ;
#128 = PERSON_AND_ORGANIZATION_ROLE ( 'design_supplier' ) ;
#129 = FACE_OUTER_BOUND ( 'NONE', #216, .T. ) ;
#130 = CYLINDRICAL_SURFACE ( 'NONE', #61, 0.7499999999999995559 ) ;
#131 = DIRECTION ( 'NONE',  ( 0.0000000000000000000, 1.000000000000000000, 0.0000000000000000000 ) ) ;
#132 = DIRECTION ( 'NONE',  ( 3.491481338843133355E-15, -0.0000000000000000000, 1.000000000000000000 ) ) ;
#133 = CYLINDRICAL_SURFACE ( 'NONE', #32, 2.000000000000000000 ) ;
#134 = CARTESIAN_POINT ( 'NONE',  ( 1.117274028429802674E-14, -6.938893903907227392E-16, 3.199999999999999734 ) ) ;
#135 = CC_DESIGN_APPROVAL ( #98, ( #2 ) ) ;
#136 = CONICAL_SURFACE ( 'NONE', #41, 4.000000000000000000, 0.2617993877991428575 ) ;
#137 = FACE_OUTER_BOUND ( 'NONE', #40, .T. ) ;
#138 = ORIENTED_EDGE ( 'NONE', *, *, #104, .F. ) ;
#139 = PERSON_AND_ORGANIZATION ( #199, #93 ) ;
#140 = ORIENTED_EDGE ( 'NONE', *, *, #39, .F. ) ;
#141 = PRODUCT_DEFINITION_FORMATION_WITH_SPECIFIED_SOURCE ( 'ANY', '', #169, .NOT_KNOWN. ) ;
#142 = COORDINATED_UNIVERSAL_TIME_OFFSET ( 1, 0, .AHEAD. ) ;
#143 = AXIS2_PLACEMENT_3D ( 'NONE', #58, #132, #214 ) ;
#144 = COORDINATED_UNIVERSAL_TIME_OFFSET ( 1, 0, .AHEAD. ) ;
#145 = APPROVAL_STATUS ( 'not_yet_approved' ) ;
#146 = ADVANCED_FACE ( 'NONE', ( #82, #192 ), #238, .F. ) ;
#147 = FACE_BOUND ( 'NONE', #1, .T. ) ;
#148 = APPROVAL ( #162, 'UNSPECIFIED' ) ;
#149 = CIRCLE ( 'NONE', #155, 2.000000000000000000 ) ;
#150 = FACE_OUTER_BOUND ( 'NONE', #5, .T. ) ;
#151 =( NAMED_UNIT ( * ) SI_UNIT ( $, .STERADIAN. ) SOLID_ANGLE_UNIT ( ) );
#152 = EDGE_LOOP ( 'NONE', ( #83 ) ) ;
#153 = PLANE ( 'NONE',  #166 ) ;
#154 = CARTESIAN_POINT ( 'NONE',  ( 2.000000000000028422, 0.0000000000000000000, 8.128368504635997027 ) ) ;
#155 = AXIS2_PLACEMENT_3D ( 'NONE', #15, #37, #97 ) ;
#156 = APPLICATION_CONTEXT ( 'configuration controlled 3d designs of mechanical parts and assemblies' ) ;
#157 = DIRECTION ( 'NONE',  ( -4.275831445896958607E-31, -1.000000000000000000, -1.224646799147353207E-16 ) ) ;
#158 = CC_DESIGN_DATE_AND_TIME_ASSIGNMENT ( #109, #66, ( #2 ) ) ;
#159 = DIRECTION ( 'NONE',  ( 0.0000000000000000000, 0.0000000000000000000, 1.000000000000000000 ) ) ;
#160 = ADVANCED_FACE ( 'NONE', ( #120, #95 ), #133, .T. ) ;
#161 = CARTESIAN_POINT ( 'NONE',  ( 0.7500000000000105471, 0.0000000000000000000, 3.199999999999995737 ) ) ;
#162 = APPROVAL_STATUS ( 'not_yet_approved' ) ;
#163 = CARTESIAN_POINT ( 'NONE',  ( 0.8181483474218728125, 0.0000000000000000000, 3.717638090205024337 ) ) ;
#164 = PERSON_AND_ORGANIZATION ( #199, #93 ) ;
#165 = PERSON_AND_ORGANIZATION ( #199, #93 ) ;
#166 = AXIS2_PLACEMENT_3D ( 'NONE', #22, #28, #18 ) ;
#167 = DIRECTION ( 'NONE',  ( -3.491481338843133355E-15, 1.224646799147353207E-16, -1.000000000000000000 ) ) ;
#168 = DATE_AND_TIME ( #233, #188 ) ;
#169 = PRODUCT ( '334895', '334895', '', ( #178 ) ) ;
#170 = ADVANCED_FACE ( 'NONE', ( #137 ), #84, .T. ) ;
#171 = CARTESIAN_POINT ( 'NONE',  ( 1.117274028429802358E-14, 0.0000000000000000000, 3.199999999999998845 ) ) ;
#172 = LOCAL_TIME ( 8, 41, 56.00000000000000000, #207 ) ;
#173 = ORIENTED_EDGE ( 'NONE', *, *, #64, .T. ) ;
#174 = CARTESIAN_POINT ( 'NONE',  ( 1.117274028429802674E-14, -6.938893903907227392E-16, 3.199999999999999734 ) ) ;
#175 = LOCAL_TIME ( 8, 41, 56.00000000000000000, #142 ) ;
#176 = CIRCLE ( 'NONE', #77, 0.7499999999999997780 ) ;
#177 = VERTEX_POINT ( 'NONE', #161 ) ;
#178 = MECHANICAL_CONTEXT ( 'NONE', #156, 'mechanical' ) ;
#179 = DATE_AND_TIME ( #3, #220 ) ;
#180 = EDGE_LOOP ( 'NONE', ( #71 ) ) ;
#181 = VERTEX_POINT ( 'NONE', #4 ) ;
#182 =( LENGTH_UNIT ( ) NAMED_UNIT ( * ) SI_UNIT ( .MILLI., .METRE. ) );
#183 = SECURITY_CLASSIFICATION_LEVEL ( 'unclassified' ) ;
#184 = CARTESIAN_POINT ( 'NONE',  ( 5.444081844965992095E-14, 0.0000000000000000000, 15.59247011977395481 ) ) ;
#185 = DIRECTION ( 'NONE',  ( 0.0000000000000000000, 1.000000000000000000, 0.0000000000000000000 ) ) ;
#186 = CC_DESIGN_PERSON_AND_ORGANIZATION_ASSIGNMENT ( #29, #218, ( #55 ) ) ;
#187 = UNCERTAINTY_MEASURE_WITH_UNIT (LENGTH_MEASURE( 1.000000000000000082E-05 ), #182, 'distance_accuracy_value', 'NONE');
#188 = LOCAL_TIME ( 8, 41, 56.00000000000000000, #221 ) ;
#189 = CLOSED_SHELL ( 'NONE', ( #160, #125, #193, #146, #241, #234 ) ) ;
#190 = EDGE_CURVE ( 'NONE', #231, #231, #149, .T. ) ;
#191 = CARTESIAN_POINT ( 'NONE',  ( 1.312796983405018394E-13, -4.604671964794048513E-15, 37.60000000000000853 ) ) ;
#192 = FACE_OUTER_BOUND ( 'NONE', #21, .T. ) ;
#193 = ADVANCED_FACE ( 'NONE', ( #99 ), #153, .F. ) ;
#194 = APPLICATION_CONTEXT ( 'configuration controlled 3d designs of mechanical parts and assemblies' ) ;
#195 = EDGE_LOOP ( 'NONE', ( #215 ) ) ;
#196 = ORIENTED_EDGE ( 'NONE', *, *, #50, .F. ) ;
#197 = EDGE_LOOP ( 'NONE', ( #86 ) ) ;
#198 = CALENDAR_DATE ( 2021, 15, 11 ) ;
#199 = PERSON ( 'UNSPECIFIED', 'UNSPECIFIED', 'UNSPECIFIED', ('UNSPECIFIED'), ('UNSPECIFIED'), ('UNSPECIFIED') ) ;
#200 = DATE_AND_TIME ( #198, #172 ) ;
#201 = VERTEX_POINT ( 'NONE', #163 ) ;
#202 = AXIS2_PLACEMENT_3D ( 'NONE', #91, #159, #6 ) ;
#203 = APPLICATION_PROTOCOL_DEFINITION ( 'international standard', 'config_control_design', 1994, #156 ) ;
#204 = VERTEX_POINT ( 'NONE', #242 ) ;
#205 = PERSON_AND_ORGANIZATION_ROLE ( 'creator' ) ;
#206 = EDGE_LOOP ( 'NONE', ( #138 ) ) ;
#207 = COORDINATED_UNIVERSAL_TIME_OFFSET ( 1, 0, .AHEAD. ) ;
#208 = DIRECTION ( 'NONE',  ( 1.000000000000000000, 0.0000000000000000000, -3.469446951953614189E-15 ) ) ;
#209 = CARTESIAN_POINT ( 'NONE',  ( 1.312796983405018394E-13, -4.604671964794048513E-15, 37.60000000000000853 ) ) ;
#210 = CARTESIAN_POINT ( 'NONE',  ( 1.117274028429802200E-14, 0.0000000000000000000, 3.199999999999998401 ) ) ;
#211 = APPROVAL_PERSON_ORGANIZATION ( #44, #148, #124 ) ;
#212 = DIRECTION ( 'NONE',  ( 3.491481338843133355E-15, -0.0000000000000000000, 1.000000000000000000 ) ) ;
#213 = CARTESIAN_POINT ( 'NONE',  ( -4.275831445896957731E-31, 1.499759782661857608E-32, -1.224646799147353207E-16 ) ) ;
#214 = DIRECTION ( 'NONE',  ( 1.000000000000000000, 0.0000000000000000000, -3.710532561149436110E-15 ) ) ;
#215 = ORIENTED_EDGE ( 'NONE', *, *, #94, .T. ) ;
#216 = EDGE_LOOP ( 'NONE', ( #105 ) ) ;
#217 = DIRECTION ( 'NONE',  ( 3.491481338843133355E-15, -1.224646799147353207E-16, 1.000000000000000000 ) ) ;
#218 = PERSON_AND_ORGANIZATION_ROLE ( 'classification_officer' ) ;
#219 = PERSON_AND_ORGANIZATION_ROLE ( 'creator' ) ;
#220 = LOCAL_TIME ( 8, 41, 56.00000000000000000, #49 ) ;
#221 = COORDINATED_UNIVERSAL_TIME_OFFSET ( 1, 0, .AHEAD. ) ;
#222 = FACE_OUTER_BOUND ( 'NONE', #197, .T. ) ;
#223 = MANIFOLD_SOLID_BREP ( 'Corps-Déplacer/Copier1[2]', #47 ) ;
#224 = AXIS2_PLACEMENT_3D ( 'NONE', #134, #230, #157 ) ;
#225 = DIRECTION ( 'NONE',  ( 3.491481338843133355E-15, -0.0000000000000000000, 1.000000000000000000 ) ) ;
#226 = DIRECTION ( 'NONE',  ( 1.000000000000000000, 0.0000000000000000000, -3.491481338843132961E-15 ) ) ;
#227 = CC_DESIGN_PERSON_AND_ORGANIZATION_ASSIGNMENT ( #139, #128, ( #141 ) ) ;
#228 = CC_DESIGN_SECURITY_CLASSIFICATION ( #55, ( #141 ) ) ;
#229 = APPROVAL_PERSON_ORGANIZATION ( #27, #98, #235 ) ;
#230 = DIRECTION ( 'NONE',  ( 3.491481338843133355E-15, -1.224646799147353207E-16, 1.000000000000000000 ) ) ;
#231 = VERTEX_POINT ( 'NONE', #154 ) ;
#232 = FACE_OUTER_BOUND ( 'NONE', #206, .T. ) ;
#233 = CALENDAR_DATE ( 2021, 15, 11 ) ;
#234 = ADVANCED_FACE ( 'NONE', ( #232 ), #38, .F. ) ;
#235 = APPROVAL_ROLE ( '' ) ;
#236 = APPROVAL_ROLE ( '' ) ;
#237 = DIRECTION ( 'NONE',  ( 3.491481338843133355E-15, -0.0000000000000000000, 1.000000000000000000 ) ) ;
#238 = TOROIDAL_SURFACE ( 'NONE', #10, 2.750000000000000444, 2.000000000000000444 ) ;
#239 = ADVANCED_FACE ( 'NONE', ( #42, #20 ), #130, .T. ) ;
#240 = DIRECTION ( 'NONE',  ( 3.491481338843133355E-15, -0.0000000000000000000, 1.000000000000000000 ) ) ;
#241 = ADVANCED_FACE ( 'NONE', ( #129, #70 ), #136, .T. ) ;
#242 = CARTESIAN_POINT ( 'NONE',  ( 0.7500000000000105471, 0.0000000000000000000, 3.199999999999995737 ) ) ;
#243 = CIRCLE ( 'NONE', #143, 0.8181483474218598229 ) ;
ENDSEC;
END-ISO-10303-21;
