ISO-10303-21;
HEADER;
FILE_DESCRIPTION (( 'STEP AP203' ),
    '1' );
FILE_NAME ('334894.step',
    '2021-11-15T07:41:56',
    ( '' ),
    ( '' ),
    'SwSTEP 2.0',
    'SolidWorks 2019',
    '' );
FILE_SCHEMA (( 'CONFIG_CONTROL_DESIGN' ));
ENDSEC;

DATA;
#1 = PERSON_AND_ORGANIZATION_ROLE ( 'creator' ) ;
#2 = ORIENTED_EDGE ( 'NONE', *, *, #170, .T. ) ;
#3 = LOCAL_TIME ( 8, 41, 56.00000000000000000, #60 ) ;
#4 = DIRECTION ( 'NONE',  ( 1.000000000000000000, 0.0000000000000000000, -3.491481338843133355E-15 ) ) ;
#5 = CARTESIAN_POINT ( 'NONE',  ( 1.228176774875465329E-14, 0.0000000000000000000, 3.517638090205027712 ) ) ;
#6 = CIRCLE ( 'NONE', #103, 1.999999999999999556 ) ;
#7 = DIRECTION ( 'NONE',  ( 3.491481338843133355E-15, -0.0000000000000000000, 1.000000000000000000 ) ) ;
#8 = ADVANCED_FACE ( 'NONE', ( #13 ), #142, .T. ) ;
#9 = CARTESIAN_POINT ( 'NONE',  ( 2.833326996892032138E-14, 0.0000000000000000000, 8.114971045014453210 ) ) ;
#10 = DIRECTION ( 'NONE',  ( 3.491481338843133355E-15, -0.0000000000000000000, 1.000000000000000000 ) ) ;
#11 =( NAMED_UNIT ( * ) SI_UNIT ( $, .STERADIAN. ) SOLID_ANGLE_UNIT ( ) );
#12 = CARTESIAN_POINT ( 'NONE',  ( 0.7000000000000000666, 0.0000000000000000000, -2.933895656849135125E-15 ) ) ;
#13 = FACE_OUTER_BOUND ( 'NONE', #33, .T. ) ;
#14 = CC_DESIGN_PERSON_AND_ORGANIZATION_ASSIGNMENT ( #151, #1, ( #185 ) ) ;
#15 = AXIS2_PLACEMENT_3D ( 'NONE', #45, #87, #199 ) ;
#16 = CC_DESIGN_SECURITY_CLASSIFICATION ( #182, ( #100 ) ) ;
#17 = TOROIDAL_SURFACE ( 'NONE', #175, 2.700000000000000622, 2.000000000000000444 ) ;
#18 = COORDINATED_UNIVERSAL_TIME_OFFSET ( 1, 0, .AHEAD. ) ;
#19 = UNCERTAINTY_MEASURE_WITH_UNIT (LENGTH_MEASURE( 1.000000000000000082E-05 ), #163, 'distance_accuracy_value', 'NONE');
#20 = ORIENTED_EDGE ( 'NONE', *, *, #32, .F. ) ;
#21 = CIRCLE ( 'NONE', #31, 0.7000000000000000666 ) ;
#22 = DIRECTION ( 'NONE',  ( -3.491481338843133355E-15, 1.224646799147353207E-16, -1.000000000000000000 ) ) ;
#23 = CARTESIAN_POINT ( 'NONE',  ( 5.439404146940336436E-14, 0.0000000000000000000, 15.57907266015240211 ) ) ;
#24 = DIRECTION ( 'NONE',  ( -3.491481338843133355E-15, 1.224646799147353207E-16, -1.000000000000000000 ) ) ;
#25 = CARTESIAN_POINT ( 'NONE',  ( 1.047444401652939691E-14, 0.0000000000000000000, 2.999999999999999112 ) ) ;
#26 = CC_DESIGN_APPROVAL ( #111, ( #100 ) ) ;
#27 = DIRECTION ( 'NONE',  ( 0.0000000000000000000, 0.0000000000000000000, 1.000000000000000000 ) ) ;
#28 = CARTESIAN_POINT ( 'NONE',  ( 1.326762908760390675E-13, 1.599999999999997202, 38.00000000000000711 ) ) ;
#29 = DIRECTION ( 'NONE',  ( -3.491481338843133355E-15, 1.224646799147353207E-16, -1.000000000000000000 ) ) ;
#30 = VERTEX_POINT ( 'NONE', #109 ) ;
#31 = AXIS2_PLACEMENT_3D ( 'NONE', #119, #139, #65 ) ;
#32 = EDGE_CURVE ( 'NONE', #162, #162, #198, .T. ) ;
#33 = EDGE_LOOP ( 'NONE', ( #79 ) ) ;
#34 = EDGE_LOOP ( 'NONE', ( #149 ) ) ;
#35 = CONICAL_SURFACE ( 'NONE', #164, 1.999999999999999556, 0.7853981633974485010 ) ;
#36 = CALENDAR_DATE ( 2021, 15, 11 ) ;
#37 = DATE_AND_TIME ( #36, #133 ) ;
#38 = AXIS2_PLACEMENT_3D ( 'NONE', #192, #7, #123 ) ;
#39 = PERSON_AND_ORGANIZATION ( #46, #83 ) ;
#40 = EDGE_CURVE ( 'NONE', #30, #30, #6, .T. ) ;
#41 = EDGE_LOOP ( 'NONE', ( #73 ) ) ;
#42 = EDGE_LOOP ( 'NONE', ( #98 ) ) ;
#43 = DIRECTION ( 'NONE',  ( 1.000000000000000000, 0.0000000000000000000, -3.469446951953614189E-15 ) ) ;
#44 = FACE_OUTER_BOUND ( 'NONE', #226, .T. ) ;
#45 = CARTESIAN_POINT ( 'NONE',  ( 1.047444401652940007E-14, -6.505213034913025618E-16, 3.000000000000000000 ) ) ;
#46 = PERSON ( 'UNSPECIFIED', 'UNSPECIFIED', 'UNSPECIFIED', ('UNSPECIFIED'), ('UNSPECIFIED'), ('UNSPECIFIED') ) ;
#47 = FACE_OUTER_BOUND ( 'NONE', #154, .T. ) ;
#48 = CARTESIAN_POINT ( 'NONE',  ( 0.0000000000000000000, 0.0000000000000000000, 0.0000000000000000000 ) ) ;
#49 = FACE_OUTER_BOUND ( 'NONE', #41, .T. ) ;
#50 = CARTESIAN_POINT ( 'NONE',  ( 0.7000000000000101696, 0.0000000000000000000, 2.999999999999996003 ) ) ;
#51 = AXIS2_PLACEMENT_3D ( 'NONE', #5, #84, #101 ) ;
#52 = CARTESIAN_POINT ( 'NONE',  ( 0.7000000000000101696, 0.0000000000000000000, 2.999999999999996003 ) ) ;
#53 = ADVANCED_FACE ( 'NONE', ( #191, #49 ), #138, .T. ) ;
#54 = MANIFOLD_SOLID_BREP ( 'Corps-Déplacer/Copier1[2]', #94 ) ;
#55 = APPROVAL_ROLE ( '' ) ;
#56 = AXIS2_PLACEMENT_3D ( 'NONE', #215, #209, #234 ) ;
#57 = ADVANCED_FACE ( 'NONE', ( #173 ), #195, .T. ) ;
#58 = APPROVAL_PERSON_ORGANIZATION ( #166, #105, #55 ) ;
#59 = MANIFOLD_SOLID_BREP ( 'Corps-Déplacer/Copier1[1]', #221 ) ;
#60 = COORDINATED_UNIVERSAL_TIME_OFFSET ( 1, 0, .AHEAD. ) ;
#61 = ORIENTED_EDGE ( 'NONE', *, *, #196, .F. ) ;
#62 = DIRECTION ( 'NONE',  ( 1.000000000000000000, 0.0000000000000000000, -3.491481338843133750E-15 ) ) ;
#63 = AXIS2_PLACEMENT_3D ( 'NONE', #9, #10, #89 ) ;
#64 = FACE_OUTER_BOUND ( 'NONE', #222, .T. ) ;
#65 = DIRECTION ( 'NONE',  ( 1.000000000000000000, 0.0000000000000000000, -3.491481338843133750E-15 ) ) ;
#66 = CONICAL_SURFACE ( 'NONE', #128, 4.000000000000000000, 0.2617993877991428575 ) ;
#67 = DIRECTION ( 'NONE',  ( 3.491481338843133355E-15, -0.0000000000000000000, 1.000000000000000000 ) ) ;
#68 = CARTESIAN_POINT ( 'NONE',  ( 0.0000000000000000000, 0.0000000000000000000, 0.0000000000000000000 ) ) ;
#69 =( GEOMETRIC_REPRESENTATION_CONTEXT ( 3 ) GLOBAL_UNCERTAINTY_ASSIGNED_CONTEXT ( ( #19 ) ) GLOBAL_UNIT_ASSIGNED_CONTEXT ( ( #163, #108, #11 ) ) REPRESENTATION_CONTEXT ( 'NONE', 'WORKASPACE' ) );
#70 = VERTEX_POINT ( 'NONE', #218 ) ;
#71 = EDGE_LOOP ( 'NONE', ( #2 ) ) ;
#72 = CC_DESIGN_PERSON_AND_ORGANIZATION_ASSIGNMENT ( #187, #118, ( #100 ) ) ;
#73 = ORIENTED_EDGE ( 'NONE', *, *, #196, .T. ) ;
#74 = PERSON_AND_ORGANIZATION ( #46, #83 ) ;
#75 = PERSON_AND_ORGANIZATION ( #46, #83 ) ;
#76 = ADVANCED_FACE ( 'NONE', ( #172, #64 ), #17, .F. ) ;
#77 = DATE_TIME_ROLE ( 'classification_date' ) ;
#78 = APPLICATION_CONTEXT ( 'configuration controlled 3d designs of mechanical parts and assemblies' ) ;
#79 = ORIENTED_EDGE ( 'NONE', *, *, #155, .F. ) ;
#80 = ADVANCED_BREP_SHAPE_REPRESENTATION ( '334894', ( #59, #54, #106 ), #69 ) ;
#81 = CALENDAR_DATE ( 2021, 15, 11 ) ;
#82 = EDGE_LOOP ( 'NONE', ( #135 ) ) ;
#83 = ORGANIZATION ( 'UNSPECIFIED', 'UNSPECIFIED', '' ) ;
#84 = DIRECTION ( 'NONE',  ( 3.491481338843133355E-15, -0.0000000000000000000, 1.000000000000000000 ) ) ;
#85 = DIRECTION ( 'NONE',  ( -4.275831445896958607E-31, -1.000000000000000000, -1.224646799147353207E-16 ) ) ;
#86 = DIRECTION ( 'NONE',  ( 4.275831445896958607E-31, 1.000000000000000000, 1.224646799147353207E-16 ) ) ;
#87 = DIRECTION ( 'NONE',  ( 3.491481338843133355E-15, -1.224646799147353207E-16, 1.000000000000000000 ) ) ;
#88 = EDGE_CURVE ( 'NONE', #70, #70, #239, .T. ) ;
#89 = DIRECTION ( 'NONE',  ( 1.000000000000000000, 0.0000000000000000000, -3.469446951953614189E-15 ) ) ;
#90 = VERTEX_POINT ( 'NONE', #124 ) ;
#91 = CC_DESIGN_APPROVAL ( #105, ( #185 ) ) ;
#92 = EDGE_LOOP ( 'NONE', ( #20 ) ) ;
#93 = DATE_TIME_ROLE ( 'creation_date' ) ;
#94 = CLOSED_SHELL ( 'NONE', ( #57, #203, #8 ) ) ;
#95 = APPROVAL_STATUS ( 'not_yet_approved' ) ;
#96 = EDGE_CURVE ( 'NONE', #179, #179, #130, .T. ) ;
#97 = DATE_AND_TIME ( #228, #194 ) ;
#98 = ORIENTED_EDGE ( 'NONE', *, *, #96, .T. ) ;
#99 = DIRECTION ( 'NONE',  ( 3.491481338843133355E-15, -1.224646799147353207E-16, 1.000000000000000000 ) ) ;
#100 = PRODUCT_DEFINITION_FORMATION_WITH_SPECIFIED_SOURCE ( 'ANY', '', #180, .NOT_KNOWN. ) ;
#101 = DIRECTION ( 'NONE',  ( 1.000000000000000000, 0.0000000000000000000, -3.387477461480717200E-15 ) ) ;
#102 = APPROVAL ( #230, 'UNSPECIFIED' ) ;
#103 = AXIS2_PLACEMENT_3D ( 'NONE', #193, #22, #141 ) ;
#104 = DIRECTION ( 'NONE',  ( 0.0000000000000000000, 1.000000000000000000, 0.0000000000000000000 ) ) ;
#105 = APPROVAL ( #242, 'UNSPECIFIED' ) ;
#106 = AXIS2_PLACEMENT_3D ( 'NONE', #48, #27, #125 ) ;
#107 = CARTESIAN_POINT ( 'NONE',  ( 1.326762908760390675E-13, -4.653657836759942730E-15, 38.00000000000000711 ) ) ;
#108 =( NAMED_UNIT ( * ) PLANE_ANGLE_UNIT ( ) SI_UNIT ( $, .RADIAN. ) );
#109 = CARTESIAN_POINT ( 'NONE',  ( 1.312796983405018394E-13, 1.999999999999994893, 37.60000000000000853 ) ) ;
#110 = CIRCLE ( 'NONE', #63, 2.000000000000000000 ) ;
#111 = APPROVAL ( #95, 'UNSPECIFIED' ) ;
#112 = ORIENTED_EDGE ( 'NONE', *, *, #170, .F. ) ;
#113 = ORIENTED_EDGE ( 'NONE', *, *, #32, .T. ) ;
#114 = APPROVAL_PERSON_ORGANIZATION ( #153, #102, #129 ) ;
#115 = DATE_AND_TIME ( #81, #227 ) ;
#116 = AXIS2_PLACEMENT_3D ( 'NONE', #190, #217, #176 ) ;
#117 = APPROVAL_ROLE ( '' ) ;
#118 = PERSON_AND_ORGANIZATION_ROLE ( 'creator' ) ;
#119 = CARTESIAN_POINT ( 'NONE',  ( -1.710332578358783092E-30, 0.0000000000000000000, -4.898587196589412829E-16 ) ) ;
#120 = FACE_OUTER_BOUND ( 'NONE', #229, .T. ) ;
#121 = ADVANCED_FACE ( 'NONE', ( #120 ), #159, .F. ) ;
#122 = DIRECTION ( 'NONE',  ( 4.275831445896958607E-31, 1.000000000000000000, 1.224646799147353207E-16 ) ) ;
#123 = DIRECTION ( 'NONE',  ( 1.000000000000000000, 0.0000000000000000000, -3.717264591378874374E-15 ) ) ;
#124 = CARTESIAN_POINT ( 'NONE',  ( 2.000000000000028422, 0.0000000000000000000, 8.114971045014446105 ) ) ;
#125 = DIRECTION ( 'NONE',  ( 1.000000000000000000, 0.0000000000000000000, 0.0000000000000000000 ) ) ;
#126 = VERTEX_POINT ( 'NONE', #12 ) ;
#127 = VERTEX_POINT ( 'NONE', #28 ) ;
#128 = AXIS2_PLACEMENT_3D ( 'NONE', #23, #160, #43 ) ;
#129 = APPROVAL_ROLE ( '' ) ;
#130 = CIRCLE ( 'NONE', #56, 0.6999999999999996225 ) ;
#131 = ORIENTED_EDGE ( 'NONE', *, *, #88, .F. ) ;
#132 = COORDINATED_UNIVERSAL_TIME_OFFSET ( 1, 0, .AHEAD. ) ;
#133 = LOCAL_TIME ( 8, 41, 56.00000000000000000, #156 ) ;
#134 = DATE_AND_TIME ( #205, #3 ) ;
#135 = ORIENTED_EDGE ( 'NONE', *, *, #40, .T. ) ;
#136 = CC_DESIGN_APPROVAL ( #102, ( #182 ) ) ;
#137 = APPROVAL_DATE_TIME ( #97, #105 ) ;
#138 = CYLINDRICAL_SURFACE ( 'NONE', #232, 2.000000000000000000 ) ;
#139 = DIRECTION ( 'NONE',  ( 3.491481338843133355E-15, -0.0000000000000000000, 1.000000000000000000 ) ) ;
#140 = FACE_OUTER_BOUND ( 'NONE', #34, .T. ) ;
#141 = DIRECTION ( 'NONE',  ( 0.0000000000000000000, 1.000000000000000000, 0.0000000000000000000 ) ) ;
#142 = PLANE ( 'NONE',  #116 ) ;
#143 = AXIS2_PLACEMENT_3D ( 'NONE', #68, #231, #62 ) ;
#144 = CARTESIAN_POINT ( 'NONE',  ( 1.312796983405018394E-13, -4.604671964794048513E-15, 37.60000000000000853 ) ) ;
#145 = CC_DESIGN_DATE_AND_TIME_ASSIGNMENT ( #167, #77, ( #182 ) ) ;
#146 = AXIS2_PLACEMENT_3D ( 'NONE', #233, #99, #85 ) ;
#147 = PRODUCT_DEFINITION_SHAPE ( 'NONE', 'NONE',  #185 ) ;
#148 = ADVANCED_FACE ( 'NONE', ( #47, #158 ), #66, .T. ) ;
#149 = ORIENTED_EDGE ( 'NONE', *, *, #96, .F. ) ;
#150 = APPLICATION_CONTEXT ( 'configuration controlled 3d designs of mechanical parts and assemblies' ) ;
#151 = PERSON_AND_ORGANIZATION ( #46, #83 ) ;
#152 = SECURITY_CLASSIFICATION_LEVEL ( 'unclassified' ) ;
#153 = PERSON_AND_ORGANIZATION ( #46, #83 ) ;
#154 = EDGE_LOOP ( 'NONE', ( #61 ) ) ;
#155 = EDGE_CURVE ( 'NONE', #126, #126, #21, .T. ) ;
#156 = COORDINATED_UNIVERSAL_TIME_OFFSET ( 1, 0, .AHEAD. ) ;
#157 = PERSON_AND_ORGANIZATION_ROLE ( 'design_owner' ) ;
#158 = FACE_BOUND ( 'NONE', #171, .T. ) ;
#159 = PLANE ( 'NONE',  #165 ) ;
#160 = DIRECTION ( 'NONE',  ( 3.491481338843133355E-15, -0.0000000000000000000, 1.000000000000000000 ) ) ;
#161 = FACE_OUTER_BOUND ( 'NONE', #92, .T. ) ;
#162 = VERTEX_POINT ( 'NONE', #52 ) ;
#163 =( LENGTH_UNIT ( ) NAMED_UNIT ( * ) SI_UNIT ( .MILLI., .METRE. ) );
#164 = AXIS2_PLACEMENT_3D ( 'NONE', #144, #29, #178 ) ;
#165 = AXIS2_PLACEMENT_3D ( 'NONE', #177, #174, #122 ) ;
#166 = PERSON_AND_ORGANIZATION ( #46, #83 ) ;
#167 = DATE_AND_TIME ( #225, #216 ) ;
#168 = PRODUCT_RELATED_PRODUCT_CATEGORY ( 'detail', '', ( #180 ) ) ;
#169 = DESIGN_CONTEXT ( 'detailed design', #150, 'design' ) ;
#170 = EDGE_CURVE ( 'NONE', #127, #127, #212, .T. ) ;
#171 = EDGE_LOOP ( 'NONE', ( #188 ) ) ;
#172 = FACE_OUTER_BOUND ( 'NONE', #42, .T. ) ;
#173 = FACE_OUTER_BOUND ( 'NONE', #208, .T. ) ;
#174 = DIRECTION ( 'NONE',  ( -3.491481338843133355E-15, 1.224646799147353207E-16, -1.000000000000000000 ) ) ;
#175 = AXIS2_PLACEMENT_3D ( 'NONE', #25, #67, #4 ) ;
#176 = DIRECTION ( 'NONE',  ( 4.275831445896958607E-31, 1.000000000000000000, 1.224646799147353207E-16 ) ) ;
#177 = CARTESIAN_POINT ( 'NONE',  ( 1.326762908760390675E-13, -8.377713426430119900E-31, 38.00000000000000711 ) ) ;
#178 = DIRECTION ( 'NONE',  ( 0.0000000000000000000, 1.000000000000000000, 0.0000000000000000000 ) ) ;
#179 = VERTEX_POINT ( 'NONE', #50 ) ;
#180 = PRODUCT ( '334894', '334894', '', ( #219 ) ) ;
#181 = CC_DESIGN_PERSON_AND_ORGANIZATION_ASSIGNMENT ( #39, #189, ( #182 ) ) ;
#182 = SECURITY_CLASSIFICATION ( '', '', #152 ) ;
#183 = APPROVAL_DATE_TIME ( #134, #102 ) ;
#184 = PERSON_AND_ORGANIZATION_ROLE ( 'design_supplier' ) ;
#185 = PRODUCT_DEFINITION ( 'UNKNOWN', '', #100, #169 ) ;
#186 = ORIENTED_EDGE ( 'NONE', *, *, #155, .T. ) ;
#187 = PERSON_AND_ORGANIZATION ( #46, #83 ) ;
#188 = ORIENTED_EDGE ( 'NONE', *, *, #88, .T. ) ;
#189 = PERSON_AND_ORGANIZATION_ROLE ( 'classification_officer' ) ;
#190 = CARTESIAN_POINT ( 'NONE',  ( -4.275831445896957731E-31, 1.499759782661857608E-32, -1.224646799147353207E-16 ) ) ;
#191 = FACE_OUTER_BOUND ( 'NONE', #82, .T. ) ;
#192 = CARTESIAN_POINT ( 'NONE',  ( 1.047444401652939533E-14, 0.0000000000000000000, 2.999999999999998668 ) ) ;
#193 = CARTESIAN_POINT ( 'NONE',  ( 1.312796983405018394E-13, -4.604671964794048513E-15, 37.60000000000000853 ) ) ;
#194 = LOCAL_TIME ( 8, 41, 56.00000000000000000, #132 ) ;
#195 = PLANE ( 'NONE',  #146 ) ;
#196 = EDGE_CURVE ( 'NONE', #90, #90, #110, .T. ) ;
#197 = FACE_OUTER_BOUND ( 'NONE', #201, .T. ) ;
#198 = CIRCLE ( 'NONE', #38, 0.6999999999999996225 ) ;
#199 = DIRECTION ( 'NONE',  ( -4.275831445896958607E-31, -1.000000000000000000, -1.224646799147353207E-16 ) ) ;
#200 = AXIS2_PLACEMENT_3D ( 'NONE', #107, #210, #104 ) ;
#201 = EDGE_LOOP ( 'NONE', ( #206 ) ) ;
#202 = COORDINATED_UNIVERSAL_TIME_OFFSET ( 1, 0, .AHEAD. ) ;
#203 = ADVANCED_FACE ( 'NONE', ( #44, #161 ), #237, .T. ) ;
#204 = PERSON_AND_ORGANIZATION ( #46, #83 ) ;
#205 = CALENDAR_DATE ( 2021, 15, 11 ) ;
#206 = ORIENTED_EDGE ( 'NONE', *, *, #40, .F. ) ;
#207 = SHAPE_DEFINITION_REPRESENTATION ( #147, #80 ) ;
#208 = EDGE_LOOP ( 'NONE', ( #113 ) ) ;
#209 = DIRECTION ( 'NONE',  ( 3.491481338843133355E-15, -0.0000000000000000000, 1.000000000000000000 ) ) ;
#210 = DIRECTION ( 'NONE',  ( -3.491481338843133355E-15, 1.224646799147353207E-16, -1.000000000000000000 ) ) ;
#211 = CC_DESIGN_PERSON_AND_ORGANIZATION_ASSIGNMENT ( #204, #184, ( #100 ) ) ;
#212 = CIRCLE ( 'NONE', #200, 1.600000000000001865 ) ;
#213 = PLANE ( 'NONE',  #15 ) ;
#214 = ADVANCED_FACE ( 'NONE', ( #140 ), #213, .F. ) ;
#215 = CARTESIAN_POINT ( 'NONE',  ( 1.047444401652939533E-14, 0.0000000000000000000, 2.999999999999998668 ) ) ;
#216 = LOCAL_TIME ( 8, 41, 56.00000000000000000, #18 ) ;
#217 = DIRECTION ( 'NONE',  ( -3.491481338843133355E-15, 1.224646799147353207E-16, -1.000000000000000000 ) ) ;
#218 = CARTESIAN_POINT ( 'NONE',  ( 0.7681483474218723240, 0.0000000000000000000, 3.517638090205025492 ) ) ;
#219 = MECHANICAL_CONTEXT ( 'NONE', #78, 'mechanical' ) ;
#220 = FACE_BOUND ( 'NONE', #71, .T. ) ;
#221 = CLOSED_SHELL ( 'NONE', ( #53, #241, #121, #76, #148, #214 ) ) ;
#222 = EDGE_LOOP ( 'NONE', ( #131 ) ) ;
#223 = CC_DESIGN_DATE_AND_TIME_ASSIGNMENT ( #115, #93, ( #185 ) ) ;
#224 = APPLICATION_PROTOCOL_DEFINITION ( 'international standard', 'config_control_design', 1994, #150 ) ;
#225 = CALENDAR_DATE ( 2021, 15, 11 ) ;
#226 = EDGE_LOOP ( 'NONE', ( #186 ) ) ;
#227 = LOCAL_TIME ( 8, 41, 56.00000000000000000, #202 ) ;
#228 = CALENDAR_DATE ( 2021, 15, 11 ) ;
#229 = EDGE_LOOP ( 'NONE', ( #112 ) ) ;
#230 = APPROVAL_STATUS ( 'not_yet_approved' ) ;
#231 = DIRECTION ( 'NONE',  ( 3.491481338843133355E-15, -0.0000000000000000000, 1.000000000000000000 ) ) ;
#232 = AXIS2_PLACEMENT_3D ( 'NONE', #236, #24, #86 ) ;
#233 = CARTESIAN_POINT ( 'NONE',  ( 1.047444401652940007E-14, -6.505213034913025618E-16, 3.000000000000000000 ) ) ;
#234 = DIRECTION ( 'NONE',  ( 1.000000000000000000, 0.0000000000000000000, -3.717264591378874374E-15 ) ) ;
#235 = CC_DESIGN_PERSON_AND_ORGANIZATION_ASSIGNMENT ( #74, #157, ( #180 ) ) ;
#236 = CARTESIAN_POINT ( 'NONE',  ( 0.0000000000000000000, 0.0000000000000000000, 0.0000000000000000000 ) ) ;
#237 = CYLINDRICAL_SURFACE ( 'NONE', #143, 0.6999999999999998446 ) ;
#238 = APPLICATION_PROTOCOL_DEFINITION ( 'international standard', 'config_control_design', 1994, #78 ) ;
#239 = CIRCLE ( 'NONE', #51, 0.7681483474218601115 ) ;
#240 = APPROVAL_PERSON_ORGANIZATION ( #75, #111, #117 ) ;
#241 = ADVANCED_FACE ( 'NONE', ( #220, #197 ), #35, .T. ) ;
#242 = APPROVAL_STATUS ( 'not_yet_approved' ) ;
#243 = APPROVAL_DATE_TIME ( #37, #111 ) ;
ENDSEC;
END-ISO-10303-21;
