ISO-10303-21;
HEADER;
FILE_DESCRIPTION (( 'STEP AP203' ),
    '1' );
FILE_NAME ('334893.step',
    '2021-11-15T07:41:55',
    ( '' ),
    ( '' ),
    'SwSTEP 2.0',
    'SolidWorks 2019',
    '' );
FILE_SCHEMA (( 'CONFIG_CONTROL_DESIGN' ));
ENDSEC;

DATA;
#1 = VERTEX_POINT ( 'NONE', #65 ) ;
#2 = CC_DESIGN_SECURITY_CLASSIFICATION ( #86, ( #66 ) ) ;
#3 = DIRECTION ( 'NONE',  ( 1.000000000000000000, 0.0000000000000000000, -3.491481338843133355E-15 ) ) ;
#4 = VERTEX_POINT ( 'NONE', #34 ) ;
#5 = AXIS2_PLACEMENT_3D ( 'NONE', #242, #142, #177 ) ;
#6 = APPLICATION_CONTEXT ( 'configuration controlled 3d designs of mechanical parts and assemblies' ) ;
#7 = APPROVAL_ROLE ( '' ) ;
#8 = AXIS2_PLACEMENT_3D ( 'NONE', #140, #198, #121 ) ;
#9 = CC_DESIGN_PERSON_AND_ORGANIZATION_ASSIGNMENT ( #40, #170, ( #130 ) ) ;
#10 = CARTESIAN_POINT ( 'NONE',  ( 1.312796983405018394E-13, -4.604671964794048513E-15, 37.60000000000000853 ) ) ;
#11 = ORIENTED_EDGE ( 'NONE', *, *, #169, .T. ) ;
#12 = CONICAL_SURFACE ( 'NONE', #139, 4.000000000000000000, 0.2617993877991427465 ) ;
#13 = FACE_OUTER_BOUND ( 'NONE', #135, .T. ) ;
#14 = CC_DESIGN_PERSON_AND_ORGANIZATION_ASSIGNMENT ( #78, #143, ( #86 ) ) ;
#15 = DIRECTION ( 'NONE',  ( 1.000000000000000000, 0.0000000000000000000, 0.0000000000000000000 ) ) ;
#16 = DIRECTION ( 'NONE',  ( 4.275831445896958607E-31, 1.000000000000000000, 1.224646799147353207E-16 ) ) ;
#17 = DATE_AND_TIME ( #180, #209 ) ;
#18 = CIRCLE ( 'NONE', #68, 1.999999999999999556 ) ;
#19 = DIRECTION ( 'NONE',  ( -3.491481338843133355E-15, 1.224646799147353207E-16, -1.000000000000000000 ) ) ;
#20 = CARTESIAN_POINT ( 'NONE',  ( 1.312796983405018394E-13, 1.999999999999994893, 37.60000000000000853 ) ) ;
#21 = DIRECTION ( 'NONE',  ( 3.491481338843133355E-15, -0.0000000000000000000, 1.000000000000000000 ) ) ;
#22 = CIRCLE ( 'NONE', #5, 1.600000000000001865 ) ;
#23 = FACE_OUTER_BOUND ( 'NONE', #113, .T. ) ;
#24 = CC_DESIGN_PERSON_AND_ORGANIZATION_ASSIGNMENT ( #222, #219, ( #66 ) ) ;
#25 = APPLICATION_CONTEXT ( 'configuration controlled 3d designs of mechanical parts and assemblies' ) ;
#26 = APPLICATION_PROTOCOL_DEFINITION ( 'international standard', 'config_control_design', 1994, #25 ) ;
#27 = AXIS2_PLACEMENT_3D ( 'NONE', #191, #111, #74 ) ;
#28 = EDGE_LOOP ( 'NONE', ( #155 ) ) ;
#29 = CC_DESIGN_PERSON_AND_ORGANIZATION_ASSIGNMENT ( #118, #202, ( #66 ) ) ;
#30 = FACE_OUTER_BOUND ( 'NONE', #73, .T. ) ;
#31 = EDGE_LOOP ( 'NONE', ( #112 ) ) ;
#32 = CARTESIAN_POINT ( 'NONE',  ( 9.776147748760771817E-15, -6.071532165918823844E-16, 2.799999999999999378 ) ) ;
#33 = AXIS2_PLACEMENT_3D ( 'NONE', #157, #203, #72 ) ;
#34 = CARTESIAN_POINT ( 'NONE',  ( 0.6500000000000093481, 0.0000000000000000000, 2.799999999999996270 ) ) ;
#35 = FACE_BOUND ( 'NONE', #237, .T. ) ;
#36 = TOROIDAL_SURFACE ( 'NONE', #148, 2.649999999999999911, 2.000000000000000000 ) ;
#37 = ADVANCED_FACE ( 'NONE', ( #30, #214 ), #69, .T. ) ;
#38 = AXIS2_PLACEMENT_3D ( 'NONE', #43, #116, #106 ) ;
#39 = APPROVAL ( #168, 'UNSPECIFIED' ) ;
#40 = PERSON_AND_ORGANIZATION ( #200, #67 ) ;
#41 = ORIENTED_EDGE ( 'NONE', *, *, #197, .T. ) ;
#42 = CARTESIAN_POINT ( 'NONE',  ( 0.6500000000000000222, 0.0000000000000000000, -2.759321589906978062E-15 ) ) ;
#43 = CARTESIAN_POINT ( 'NONE',  ( -1.710332578358783092E-30, 0.0000000000000000000, -4.898587196589412829E-16 ) ) ;
#44 = EDGE_LOOP ( 'NONE', ( #136 ) ) ;
#45 = VERTEX_POINT ( 'NONE', #159 ) ;
#46 = APPROVAL_PERSON_ORGANIZATION ( #93, #39, #7 ) ;
#47 = SECURITY_CLASSIFICATION_LEVEL ( 'unclassified' ) ;
#48 = DIRECTION ( 'NONE',  ( 1.000000000000000000, 0.0000000000000000000, -3.469446951953614189E-15 ) ) ;
#49 = APPROVAL ( #196, 'UNSPECIFIED' ) ;
#50 = FACE_OUTER_BOUND ( 'NONE', #212, .T. ) ;
#51 = AXIS2_PLACEMENT_3D ( 'NONE', #217, #19, #16 ) ;
#52 = CC_DESIGN_APPROVAL ( #39, ( #130 ) ) ;
#53 = DIRECTION ( 'NONE',  ( 0.0000000000000000000, 1.000000000000000000, 0.0000000000000000000 ) ) ;
#54 = UNCERTAINTY_MEASURE_WITH_UNIT (LENGTH_MEASURE( 1.000000000000000082E-05 ), #181, 'distance_accuracy_value', 'NONE');
#55 = EDGE_LOOP ( 'NONE', ( #95 ) ) ;
#56 = CALENDAR_DATE ( 2021, 15, 11 ) ;
#57 = DIRECTION ( 'NONE',  ( 3.491481338843133355E-15, -0.0000000000000000000, 1.000000000000000000 ) ) ;
#58 = DIRECTION ( 'NONE',  ( 0.0000000000000000000, 0.0000000000000000000, 1.000000000000000000 ) ) ;
#59 = ORIENTED_EDGE ( 'NONE', *, *, #169, .F. ) ;
#60 = DATE_TIME_ROLE ( 'creation_date' ) ;
#61 = SHAPE_DEFINITION_REPRESENTATION ( #128, #144 ) ;
#62 = PRODUCT_RELATED_PRODUCT_CATEGORY ( 'detail', '', ( #70 ) ) ;
#63 = ORIENTED_EDGE ( 'NONE', *, *, #149, .T. ) ;
#64 = APPROVAL_ROLE ( '' ) ;
#65 = CARTESIAN_POINT ( 'NONE',  ( 1.326762908760390675E-13, 1.599999999999997202, 38.00000000000000711 ) ) ;
#66 = PRODUCT_DEFINITION_FORMATION_WITH_SPECIFIED_SOURCE ( 'ANY', '', #70, .NOT_KNOWN. ) ;
#67 = ORGANIZATION ( 'UNSPECIFIED', 'UNSPECIFIED', '' ) ;
#68 = AXIS2_PLACEMENT_3D ( 'NONE', #10, #230, #53 ) ;
#69 = CYLINDRICAL_SURFACE ( 'NONE', #108, 0.6499999999999998002 ) ;
#70 = PRODUCT ( '334893', '334893', '', ( #76 ) ) ;
#71 = CONICAL_SURFACE ( 'NONE', #8, 1.999999999999999556, 0.7853981633974485010 ) ;
#72 = DIRECTION ( 'NONE',  ( 1.000000000000000000, 0.0000000000000000000, -3.469446951953614189E-15 ) ) ;
#73 = EDGE_LOOP ( 'NONE', ( #41 ) ) ;
#74 = DIRECTION ( 'NONE',  ( -4.275831445896958607E-31, -1.000000000000000000, -1.224646799147353207E-16 ) ) ;
#75 = CARTESIAN_POINT ( 'NONE',  ( -4.275831445896957731E-31, 1.499759782661857608E-32, -1.224646799147353207E-16 ) ) ;
#76 = MECHANICAL_CONTEXT ( 'NONE', #6, 'mechanical' ) ;
#77 = FACE_BOUND ( 'NONE', #182, .T. ) ;
#78 = PERSON_AND_ORGANIZATION ( #200, #67 ) ;
#79 = CC_DESIGN_DATE_AND_TIME_ASSIGNMENT ( #137, #60, ( #130 ) ) ;
#80 = AXIS2_PLACEMENT_3D ( 'NONE', #187, #21, #87 ) ;
#81 = EDGE_LOOP ( 'NONE', ( #243 ) ) ;
#82 = DATE_AND_TIME ( #103, #190 ) ;
#83 =( NAMED_UNIT ( * ) PLANE_ANGLE_UNIT ( ) SI_UNIT ( $, .RADIAN. ) );
#84 = VERTEX_POINT ( 'NONE', #162 ) ;
#85 = FACE_OUTER_BOUND ( 'NONE', #55, .T. ) ;
#86 = SECURITY_CLASSIFICATION ( '', '', #47 ) ;
#87 = DIRECTION ( 'NONE',  ( 1.000000000000000000, 0.0000000000000000000, -3.336006684570784876E-15 ) ) ;
#88 = EDGE_CURVE ( 'NONE', #4, #4, #129, .T. ) ;
#89 = ADVANCED_FACE ( 'NONE', ( #199 ), #99, .T. ) ;
#90 = AXIS2_PLACEMENT_3D ( 'NONE', #75, #138, #231 ) ;
#91 = CARTESIAN_POINT ( 'NONE',  ( 1.158347148098602504E-14, 0.0000000000000000000, 3.317638090205027535 ) ) ;
#92 = CARTESIAN_POINT ( 'NONE',  ( 0.0000000000000000000, 0.0000000000000000000, 0.0000000000000000000 ) ) ;
#93 = PERSON_AND_ORGANIZATION ( #200, #67 ) ;
#94 = APPROVAL ( #114, 'UNSPECIFIED' ) ;
#95 = ORIENTED_EDGE ( 'NONE', *, *, #228, .T. ) ;
#96 = COORDINATED_UNIVERSAL_TIME_OFFSET ( 1, 0, .AHEAD. ) ;
#97 = VERTEX_POINT ( 'NONE', #42 ) ;
#98 = CC_DESIGN_APPROVAL ( #49, ( #86 ) ) ;
#99 = PLANE ( 'NONE',  #204 ) ;
#100 = COORDINATED_UNIVERSAL_TIME_OFFSET ( 1, 0, .AHEAD. ) ;
#101 = APPROVAL_ROLE ( '' ) ;
#102 = ORIENTED_EDGE ( 'NONE', *, *, #145, .T. ) ;
#103 = CALENDAR_DATE ( 2021, 15, 11 ) ;
#104 = LOCAL_TIME ( 8, 41, 55.00000000000000000, #193 ) ;
#105 = CARTESIAN_POINT ( 'NONE',  ( 0.7181483474218716134, 0.0000000000000000000, 3.317638090205024870 ) ) ;
#106 = DIRECTION ( 'NONE',  ( 1.000000000000000000, 0.0000000000000000000, -3.491481338843133355E-15 ) ) ;
#107 = DIRECTION ( 'NONE',  ( 3.491481338843133355E-15, -0.0000000000000000000, 1.000000000000000000 ) ) ;
#108 = AXIS2_PLACEMENT_3D ( 'NONE', #92, #57, #234 ) ;
#109 = CC_DESIGN_DATE_AND_TIME_ASSIGNMENT ( #82, #223, ( #86 ) ) ;
#110 = AXIS2_PLACEMENT_3D ( 'NONE', #152, #117, #195 ) ;
#111 = DIRECTION ( 'NONE',  ( 3.491481338843133355E-15, -1.224646799147353207E-16, 1.000000000000000000 ) ) ;
#112 = ORIENTED_EDGE ( 'NONE', *, *, #149, .F. ) ;
#113 = EDGE_LOOP ( 'NONE', ( #11 ) ) ;
#114 = APPROVAL_STATUS ( 'not_yet_approved' ) ;
#115 =( NAMED_UNIT ( * ) SI_UNIT ( $, .STERADIAN. ) SOLID_ANGLE_UNIT ( ) );
#116 = DIRECTION ( 'NONE',  ( 3.491481338843133355E-15, -0.0000000000000000000, 1.000000000000000000 ) ) ;
#117 = DIRECTION ( 'NONE',  ( 3.491481338843133355E-15, -0.0000000000000000000, 1.000000000000000000 ) ) ;
#118 = PERSON_AND_ORGANIZATION ( #200, #67 ) ;
#119 = CC_DESIGN_PERSON_AND_ORGANIZATION_ASSIGNMENT ( #167, #192, ( #70 ) ) ;
#120 = APPROVAL_DATE_TIME ( #160, #94 ) ;
#121 = DIRECTION ( 'NONE',  ( 0.0000000000000000000, 1.000000000000000000, 0.0000000000000000000 ) ) ;
#122 = APPLICATION_PROTOCOL_DEFINITION ( 'international standard', 'config_control_design', 1994, #6 ) ;
#123 = PLANE ( 'NONE',  #51 ) ;
#124 = CC_DESIGN_APPROVAL ( #94, ( #66 ) ) ;
#125 = CARTESIAN_POINT ( 'NONE',  ( 5.434726448914683301E-14, 0.0000000000000000000, 15.56567520053085651 ) ) ;
#126 = CYLINDRICAL_SURFACE ( 'NONE', #154, 2.000000000000000000 ) ;
#127 = AXIS2_PLACEMENT_3D ( 'NONE', #91, #171, #172 ) ;
#128 = PRODUCT_DEFINITION_SHAPE ( 'NONE', 'NONE',  #130 ) ;
#129 = CIRCLE ( 'NONE', #110, 0.6499999999999995781 ) ;
#130 = PRODUCT_DEFINITION ( 'UNKNOWN', '', #66, #211 ) ;
#131 = PLANE ( 'NONE',  #27 ) ;
#132 = ADVANCED_FACE ( 'NONE', ( #13 ), #133, .T. ) ;
#133 = PLANE ( 'NONE',  #90 ) ;
#134 = CIRCLE ( 'NONE', #38, 0.6500000000000000222 ) ;
#135 = EDGE_LOOP ( 'NONE', ( #141 ) ) ;
#136 = ORIENTED_EDGE ( 'NONE', *, *, #228, .F. ) ;
#137 = DATE_AND_TIME ( #240, #104 ) ;
#138 = DIRECTION ( 'NONE',  ( -3.491481338843133355E-15, 1.224646799147353207E-16, -1.000000000000000000 ) ) ;
#139 = AXIS2_PLACEMENT_3D ( 'NONE', #125, #107, #48 ) ;
#140 = CARTESIAN_POINT ( 'NONE',  ( 1.312796983405018394E-13, -4.604671964794048513E-15, 37.60000000000000853 ) ) ;
#141 = ORIENTED_EDGE ( 'NONE', *, *, #197, .F. ) ;
#142 = DIRECTION ( 'NONE',  ( -3.491481338843133355E-15, 1.224646799147353207E-16, -1.000000000000000000 ) ) ;
#143 = PERSON_AND_ORGANIZATION_ROLE ( 'classification_officer' ) ;
#144 = ADVANCED_BREP_SHAPE_REPRESENTATION ( '334893', ( #208, #207, #150 ), #185 ) ;
#145 = EDGE_CURVE ( 'NONE', #225, #225, #241, .T. ) ;
#146 = CARTESIAN_POINT ( 'NONE',  ( 0.0000000000000000000, 0.0000000000000000000, 0.0000000000000000000 ) ) ;
#147 = DIRECTION ( 'NONE',  ( 3.491481338843133355E-15, -0.0000000000000000000, 1.000000000000000000 ) ) ;
#148 = AXIS2_PLACEMENT_3D ( 'NONE', #188, #147, #3 ) ;
#149 = EDGE_CURVE ( 'NONE', #186, #186, #18, .T. ) ;
#150 = AXIS2_PLACEMENT_3D ( 'NONE', #238, #58, #15 ) ;
#151 = ADVANCED_FACE ( 'NONE', ( #210 ), #131, .F. ) ;
#152 = CARTESIAN_POINT ( 'NONE',  ( 9.776147748760767084E-15, 0.0000000000000000000, 2.799999999999998046 ) ) ;
#153 = EDGE_LOOP ( 'NONE', ( #63 ) ) ;
#154 = AXIS2_PLACEMENT_3D ( 'NONE', #146, #163, #205 ) ;
#155 = ORIENTED_EDGE ( 'NONE', *, *, #178, .F. ) ;
#156 = CALENDAR_DATE ( 2021, 15, 11 ) ;
#157 = CARTESIAN_POINT ( 'NONE',  ( 2.828649298866377426E-14, 0.0000000000000000000, 8.101573585392902288 ) ) ;
#158 = DIRECTION ( 'NONE',  ( -4.275831445896958607E-31, -1.000000000000000000, -1.224646799147353207E-16 ) ) ;
#159 = CARTESIAN_POINT ( 'NONE',  ( 0.6500000000000093481, 0.0000000000000000000, 2.799999999999996270 ) ) ;
#160 = DATE_AND_TIME ( #156, #235 ) ;
#161 = PERSON_AND_ORGANIZATION ( #200, #67 ) ;
#162 = CARTESIAN_POINT ( 'NONE',  ( 2.000000000000028422, 0.0000000000000000000, 8.101573585392895183 ) ) ;
#163 = DIRECTION ( 'NONE',  ( -3.491481338843133355E-15, 1.224646799147353207E-16, -1.000000000000000000 ) ) ;
#164 = CIRCLE ( 'NONE', #80, 0.6499999999999995781 ) ;
#165 = FACE_OUTER_BOUND ( 'NONE', #153, .T. ) ;
#166 = ADVANCED_FACE ( 'NONE', ( #77, #174 ), #71, .T. ) ;
#167 = PERSON_AND_ORGANIZATION ( #200, #67 ) ;
#168 = APPROVAL_STATUS ( 'not_yet_approved' ) ;
#169 = EDGE_CURVE ( 'NONE', #84, #84, #189, .T. ) ;
#170 = PERSON_AND_ORGANIZATION_ROLE ( 'creator' ) ;
#171 = DIRECTION ( 'NONE',  ( 3.491481338843133355E-15, -0.0000000000000000000, 1.000000000000000000 ) ) ;
#172 = DIRECTION ( 'NONE',  ( 1.000000000000000000, 0.0000000000000000000, -3.623325491601632651E-15 ) ) ;
#173 = DATE_AND_TIME ( #56, #213 ) ;
#174 = FACE_OUTER_BOUND ( 'NONE', #31, .T. ) ;
#175 = EDGE_LOOP ( 'NONE', ( #59 ) ) ;
#176 = APPROVAL_DATE_TIME ( #17, #49 ) ;
#177 = DIRECTION ( 'NONE',  ( 0.0000000000000000000, 1.000000000000000000, 0.0000000000000000000 ) ) ;
#178 = EDGE_CURVE ( 'NONE', #1, #1, #22, .T. ) ;
#179 = DIRECTION ( 'NONE',  ( 3.491481338843133355E-15, -1.224646799147353207E-16, 1.000000000000000000 ) ) ;
#180 = CALENDAR_DATE ( 2021, 15, 11 ) ;
#181 =( LENGTH_UNIT ( ) NAMED_UNIT ( * ) SI_UNIT ( .MILLI., .METRE. ) );
#182 = EDGE_LOOP ( 'NONE', ( #194 ) ) ;
#183 = COORDINATED_UNIVERSAL_TIME_OFFSET ( 1, 0, .AHEAD. ) ;
#184 = ADVANCED_FACE ( 'NONE', ( #236 ), #123, .F. ) ;
#185 =( GEOMETRIC_REPRESENTATION_CONTEXT ( 3 ) GLOBAL_UNCERTAINTY_ASSIGNED_CONTEXT ( ( #54 ) ) GLOBAL_UNIT_ASSIGNED_CONTEXT ( ( #181, #83, #115 ) ) REPRESENTATION_CONTEXT ( 'NONE', 'WORKASPACE' ) );
#186 = VERTEX_POINT ( 'NONE', #20 ) ;
#187 = CARTESIAN_POINT ( 'NONE',  ( 9.776147748760767084E-15, 0.0000000000000000000, 2.799999999999998046 ) ) ;
#188 = CARTESIAN_POINT ( 'NONE',  ( 9.776147748760768662E-15, 0.0000000000000000000, 2.799999999999998490 ) ) ;
#189 = CIRCLE ( 'NONE', #33, 2.000000000000000000 ) ;
#190 = LOCAL_TIME ( 8, 41, 55.00000000000000000, #100 ) ;
#191 = CARTESIAN_POINT ( 'NONE',  ( 9.776147748760771817E-15, -6.071532165918823844E-16, 2.799999999999999378 ) ) ;
#192 = PERSON_AND_ORGANIZATION_ROLE ( 'design_owner' ) ;
#193 = COORDINATED_UNIVERSAL_TIME_OFFSET ( 1, 0, .AHEAD. ) ;
#194 = ORIENTED_EDGE ( 'NONE', *, *, #178, .T. ) ;
#195 = DIRECTION ( 'NONE',  ( 1.000000000000000000, 0.0000000000000000000, -3.336006684570784876E-15 ) ) ;
#196 = APPROVAL_STATUS ( 'not_yet_approved' ) ;
#197 = EDGE_CURVE ( 'NONE', #97, #97, #134, .T. ) ;
#198 = DIRECTION ( 'NONE',  ( -3.491481338843133355E-15, 1.224646799147353207E-16, -1.000000000000000000 ) ) ;
#199 = FACE_OUTER_BOUND ( 'NONE', #81, .T. ) ;
#200 = PERSON ( 'UNSPECIFIED', 'UNSPECIFIED', 'UNSPECIFIED', ('UNSPECIFIED'), ('UNSPECIFIED'), ('UNSPECIFIED') ) ;
#201 = APPROVAL_PERSON_ORGANIZATION ( #215, #94, #64 ) ;
#202 = PERSON_AND_ORGANIZATION_ROLE ( 'design_supplier' ) ;
#203 = DIRECTION ( 'NONE',  ( 3.491481338843133355E-15, -0.0000000000000000000, 1.000000000000000000 ) ) ;
#204 = AXIS2_PLACEMENT_3D ( 'NONE', #32, #179, #158 ) ;
#205 = DIRECTION ( 'NONE',  ( 4.275831445896958607E-31, 1.000000000000000000, 1.224646799147353207E-16 ) ) ;
#206 = CLOSED_SHELL ( 'NONE', ( #89, #37, #132 ) ) ;
#207 = MANIFOLD_SOLID_BREP ( 'Corps-Déplacer/Copier1[2]', #206 ) ;
#208 = MANIFOLD_SOLID_BREP ( 'Corps-Déplacer/Copier1[1]', #229 ) ;
#209 = LOCAL_TIME ( 8, 41, 55.00000000000000000, #96 ) ;
#210 = FACE_OUTER_BOUND ( 'NONE', #44, .T. ) ;
#211 = DESIGN_CONTEXT ( 'detailed design', #25, 'design' ) ;
#212 = EDGE_LOOP ( 'NONE', ( #239 ) ) ;
#213 = LOCAL_TIME ( 8, 41, 55.00000000000000000, #232 ) ;
#214 = FACE_OUTER_BOUND ( 'NONE', #218, .T. ) ;
#215 = PERSON_AND_ORGANIZATION ( #200, #67 ) ;
#216 = APPROVAL_DATE_TIME ( #173, #39 ) ;
#217 = CARTESIAN_POINT ( 'NONE',  ( 1.326762908760390675E-13, -8.377713426430119900E-31, 38.00000000000000711 ) ) ;
#218 = EDGE_LOOP ( 'NONE', ( #220 ) ) ;
#219 = PERSON_AND_ORGANIZATION_ROLE ( 'creator' ) ;
#220 = ORIENTED_EDGE ( 'NONE', *, *, #88, .F. ) ;
#221 = ADVANCED_FACE ( 'NONE', ( #227, #35 ), #12, .T. ) ;
#222 = PERSON_AND_ORGANIZATION ( #200, #67 ) ;
#223 = DATE_TIME_ROLE ( 'classification_date' ) ;
#224 = APPROVAL_PERSON_ORGANIZATION ( #161, #49, #101 ) ;
#225 = VERTEX_POINT ( 'NONE', #105 ) ;
#226 = ADVANCED_FACE ( 'NONE', ( #85, #50 ), #36, .F. ) ;
#227 = FACE_OUTER_BOUND ( 'NONE', #175, .T. ) ;
#228 = EDGE_CURVE ( 'NONE', #45, #45, #164, .T. ) ;
#229 = CLOSED_SHELL ( 'NONE', ( #233, #166, #184, #226, #221, #151 ) ) ;
#230 = DIRECTION ( 'NONE',  ( -3.491481338843133355E-15, 1.224646799147353207E-16, -1.000000000000000000 ) ) ;
#231 = DIRECTION ( 'NONE',  ( 4.275831445896958607E-31, 1.000000000000000000, 1.224646799147353207E-16 ) ) ;
#232 = COORDINATED_UNIVERSAL_TIME_OFFSET ( 1, 0, .AHEAD. ) ;
#233 = ADVANCED_FACE ( 'NONE', ( #165, #23 ), #126, .T. ) ;
#234 = DIRECTION ( 'NONE',  ( 1.000000000000000000, 0.0000000000000000000, -3.491481338843133355E-15 ) ) ;
#235 = LOCAL_TIME ( 8, 41, 55.00000000000000000, #183 ) ;
#236 = FACE_OUTER_BOUND ( 'NONE', #28, .T. ) ;
#237 = EDGE_LOOP ( 'NONE', ( #102 ) ) ;
#238 = CARTESIAN_POINT ( 'NONE',  ( 0.0000000000000000000, 0.0000000000000000000, 0.0000000000000000000 ) ) ;
#239 = ORIENTED_EDGE ( 'NONE', *, *, #145, .F. ) ;
#240 = CALENDAR_DATE ( 2021, 15, 11 ) ;
#241 = CIRCLE ( 'NONE', #127, 0.7181483474218599561 ) ;
#242 = CARTESIAN_POINT ( 'NONE',  ( 1.326762908760390675E-13, -4.653657836759942730E-15, 38.00000000000000711 ) ) ;
#243 = ORIENTED_EDGE ( 'NONE', *, *, #88, .T. ) ;
ENDSEC;
END-ISO-10303-21;
