ISO-10303-21;
HEADER;
FILE_DESCRIPTION (( 'STEP AP203' ),
    '1' );
FILE_NAME ('334892.step',
    '2021-11-15T07:41:55',
    ( '' ),
    ( '' ),
    'SwSTEP 2.0',
    'SolidWorks 2019',
    '' );
FILE_SCHEMA (( 'CONFIG_CONTROL_DESIGN' ));
ENDSEC;

DATA;
#1 = CARTESIAN_POINT ( 'NONE',  ( 0.0000000000000000000, 0.0000000000000000000, 0.0000000000000000000 ) ) ;
#2 = ADVANCED_FACE ( 'NONE', ( #145 ), #222, .T. ) ;
#3 = FACE_OUTER_BOUND ( 'NONE', #147, .T. ) ;
#4 = AXIS2_PLACEMENT_3D ( 'NONE', #158, #123, #97 ) ;
#5 = CARTESIAN_POINT ( 'NONE',  ( 0.5999999999999998668, 0.0000000000000000000, -2.584747522964820606E-15 ) ) ;
#6 = EDGE_LOOP ( 'NONE', ( #224 ) ) ;
#7 = EDGE_CURVE ( 'NONE', #232, #232, #142, .T. ) ;
#8 = CLOSED_SHELL ( 'NONE', ( #99, #218, #2 ) ) ;
#9 = ORIENTED_EDGE ( 'NONE', *, *, #60, .F. ) ;
#10 = CLOSED_SHELL ( 'NONE', ( #144, #157, #80, #212, #53, #50 ) ) ;
#11 = PERSON_AND_ORGANIZATION ( #107, #45 ) ;
#12 = SHAPE_DEFINITION_REPRESENTATION ( #24, #66 ) ;
#13 = COORDINATED_UNIVERSAL_TIME_OFFSET ( 1, 0, .AHEAD. ) ;
#14 = DIRECTION ( 'NONE',  ( 3.491481338843133355E-15, -0.0000000000000000000, 1.000000000000000000 ) ) ;
#15 = AXIS2_PLACEMENT_3D ( 'NONE', #75, #136, #162 ) ;
#16 = CARTESIAN_POINT ( 'NONE',  ( 1.312796983405018394E-13, 1.999999999999994893, 37.60000000000000853 ) ) ;
#17 = DIRECTION ( 'NONE',  ( 0.0000000000000000000, 1.000000000000000000, 0.0000000000000000000 ) ) ;
#18 = FACE_OUTER_BOUND ( 'NONE', #150, .T. ) ;
#19 = DIRECTION ( 'NONE',  ( 1.000000000000000000, 0.0000000000000000000, -3.469446951953614189E-15 ) ) ;
#20 = AXIS2_PLACEMENT_3D ( 'NONE', #62, #59, #102 ) ;
#21 = CARTESIAN_POINT ( 'NONE',  ( -1.710332578358783092E-30, 0.0000000000000000000, -4.898587196589412829E-16 ) ) ;
#22 = TOROIDAL_SURFACE ( 'NONE', #4, 2.599999999999999645, 2.000000000000000000 ) ;
#23 = EDGE_LOOP ( 'NONE', ( #151 ) ) ;
#24 = PRODUCT_DEFINITION_SHAPE ( 'NONE', 'NONE',  #235 ) ;
#25 = ORIENTED_EDGE ( 'NONE', *, *, #149, .T. ) ;
#26 = AXIS2_PLACEMENT_3D ( 'NONE', #205, #128, #38 ) ;
#27 = COORDINATED_UNIVERSAL_TIME_OFFSET ( 1, 0, .AHEAD. ) ;
#28 = PERSON_AND_ORGANIZATION_ROLE ( 'design_supplier' ) ;
#29 = COORDINATED_UNIVERSAL_TIME_OFFSET ( 1, 0, .AHEAD. ) ;
#30 = PRODUCT_DEFINITION_FORMATION_WITH_SPECIFIED_SOURCE ( 'ANY', '', #55, .NOT_KNOWN. ) ;
#31 = EDGE_CURVE ( 'NONE', #180, #180, #111, .T. ) ;
#32 = FACE_BOUND ( 'NONE', #108, .T. ) ;
#33 = FACE_OUTER_BOUND ( 'NONE', #105, .T. ) ;
#34 = APPLICATION_PROTOCOL_DEFINITION ( 'international standard', 'config_control_design', 1994, #36 ) ;
#35 =( LENGTH_UNIT ( ) NAMED_UNIT ( * ) SI_UNIT ( .MILLI., .METRE. ) );
#36 = APPLICATION_CONTEXT ( 'configuration controlled 3d designs of mechanical parts and assemblies' ) ;
#37 = DIRECTION ( 'NONE',  ( 3.491481338843133355E-15, -0.0000000000000000000, 1.000000000000000000 ) ) ;
#38 = DIRECTION ( 'NONE',  ( 1.000000000000000000, 0.0000000000000000000, -3.469446951953614189E-15 ) ) ;
#39 = DIRECTION ( 'NONE',  ( -3.491481338843133355E-15, 1.224646799147353207E-16, -1.000000000000000000 ) ) ;
#40 = AXIS2_PLACEMENT_3D ( 'NONE', #201, #163, #204 ) ;
#41 = APPROVAL_PERSON_ORGANIZATION ( #49, #186, #113 ) ;
#42 = MANIFOLD_SOLID_BREP ( 'Corps-Déplacer/Copier1[2]', #8 ) ;
#43 = DIRECTION ( 'NONE',  ( 1.000000000000000000, 0.0000000000000000000, -3.614007241618351532E-15 ) ) ;
#44 = PRODUCT_RELATED_PRODUCT_CATEGORY ( 'detail', '', ( #55 ) ) ;
#45 = ORGANIZATION ( 'UNSPECIFIED', 'UNSPECIFIED', '' ) ;
#46 = DESIGN_CONTEXT ( 'detailed design', #36, 'design' ) ;
#47 = PERSON_AND_ORGANIZATION ( #107, #45 ) ;
#48 = CC_DESIGN_APPROVAL ( #169, ( #235 ) ) ;
#49 = PERSON_AND_ORGANIZATION ( #107, #45 ) ;
#50 = ADVANCED_FACE ( 'NONE', ( #18 ), #81, .F. ) ;
#51 = CALENDAR_DATE ( 2021, 15, 11 ) ;
#52 = APPROVAL_DATE_TIME ( #229, #186 ) ;
#53 = ADVANCED_FACE ( 'NONE', ( #3, #58 ), #84, .T. ) ;
#54 = MECHANICAL_CONTEXT ( 'NONE', #121, 'mechanical' ) ;
#55 = PRODUCT ( '334892', '334892', '', ( #54 ) ) ;
#56 =( NAMED_UNIT ( * ) SI_UNIT ( $, .STERADIAN. ) SOLID_ANGLE_UNIT ( ) );
#57 = PERSON_AND_ORGANIZATION ( #107, #45 ) ;
#58 = FACE_BOUND ( 'NONE', #130, .T. ) ;
#59 = DIRECTION ( 'NONE',  ( 3.491481338843133355E-15, -1.224646799147353207E-16, 1.000000000000000000 ) ) ;
#60 = EDGE_CURVE ( 'NONE', #78, #78, #228, .T. ) ;
#61 = PLANE ( 'NONE',  #242 ) ;
#62 = CARTESIAN_POINT ( 'NONE',  ( 9.077851480992146724E-15, -5.637851296924622071E-16, 2.600000000000000089 ) ) ;
#63 = ORIENTED_EDGE ( 'NONE', *, *, #60, .T. ) ;
#64 = ORIENTED_EDGE ( 'NONE', *, *, #122, .F. ) ;
#65 = EDGE_LOOP ( 'NONE', ( #63 ) ) ;
#66 = ADVANCED_BREP_SHAPE_REPRESENTATION ( '334892', ( #126, #42, #15 ), #69 ) ;
#67 = CC_DESIGN_PERSON_AND_ORGANIZATION_ASSIGNMENT ( #114, #70, ( #30 ) ) ;
#68 = APPROVAL_STATUS ( 'not_yet_approved' ) ;
#69 =( GEOMETRIC_REPRESENTATION_CONTEXT ( 3 ) GLOBAL_UNCERTAINTY_ASSIGNED_CONTEXT ( ( #103 ) ) GLOBAL_UNIT_ASSIGNED_CONTEXT ( ( #35, #178, #56 ) ) REPRESENTATION_CONTEXT ( 'NONE', 'WORKASPACE' ) );
#70 = PERSON_AND_ORGANIZATION_ROLE ( 'creator' ) ;
#71 = PERSON_AND_ORGANIZATION ( #107, #45 ) ;
#72 = CC_DESIGN_DATE_AND_TIME_ASSIGNMENT ( #195, #91, ( #94 ) ) ;
#73 = CYLINDRICAL_SURFACE ( 'NONE', #93, 0.5999999999999996447 ) ;
#74 = CIRCLE ( 'NONE', #26, 2.000000000000000000 ) ;
#75 = CARTESIAN_POINT ( 'NONE',  ( 0.0000000000000000000, 0.0000000000000000000, 0.0000000000000000000 ) ) ;
#76 = CARTESIAN_POINT ( 'NONE',  ( 1.326762908760390675E-13, 1.599999999999997202, 38.00000000000000711 ) ) ;
#77 = CARTESIAN_POINT ( 'NONE',  ( 1.312796983405018394E-13, -4.604671964794048513E-15, 37.60000000000000853 ) ) ;
#78 = VERTEX_POINT ( 'NONE', #233 ) ;
#79 = PERSON_AND_ORGANIZATION_ROLE ( 'design_owner' ) ;
#80 = ADVANCED_FACE ( 'NONE', ( #127 ), #61, .F. ) ;
#81 = PLANE ( 'NONE',  #239 ) ;
#82 = FACE_OUTER_BOUND ( 'NONE', #65, .T. ) ;
#83 = ORIENTED_EDGE ( 'NONE', *, *, #31, .F. ) ;
#84 = CONICAL_SURFACE ( 'NONE', #115, 4.000000000000000000, 0.2617993877991428020 ) ;
#85 = ORIENTED_EDGE ( 'NONE', *, *, #149, .F. ) ;
#86 = ORIENTED_EDGE ( 'NONE', *, *, #177, .F. ) ;
#87 = AXIS2_PLACEMENT_3D ( 'NONE', #21, #221, #188 ) ;
#88 = CALENDAR_DATE ( 2021, 15, 11 ) ;
#89 = CIRCLE ( 'NONE', #87, 0.5999999999999998668 ) ;
#90 = CC_DESIGN_PERSON_AND_ORGANIZATION_ASSIGNMENT ( #174, #193, ( #235 ) ) ;
#91 = DATE_TIME_ROLE ( 'classification_date' ) ;
#92 = PERSON_AND_ORGANIZATION_ROLE ( 'classification_officer' ) ;
#93 = AXIS2_PLACEMENT_3D ( 'NONE', #1, #14, #220 ) ;
#94 = SECURITY_CLASSIFICATION ( '', '', #211 ) ;
#95 = CARTESIAN_POINT ( 'NONE',  ( 0.6681483474218702368, 0.0000000000000000000, 3.117638090205025581 ) ) ;
#96 = CARTESIAN_POINT ( 'NONE',  ( 9.077851480992141991E-15, 0.0000000000000000000, 2.599999999999998757 ) ) ;
#97 = DIRECTION ( 'NONE',  ( 1.000000000000000000, 0.0000000000000000000, -3.491481338843132961E-15 ) ) ;
#98 = CARTESIAN_POINT ( 'NONE',  ( 9.077851480992146724E-15, -5.637851296924622071E-16, 2.600000000000000089 ) ) ;
#99 = ADVANCED_FACE ( 'NONE', ( #82 ), #185, .T. ) ;
#100 = LOCAL_TIME ( 8, 41, 55.00000000000000000, #27 ) ;
#101 = DIRECTION ( 'NONE',  ( 3.491481338843133355E-15, -0.0000000000000000000, 1.000000000000000000 ) ) ;
#102 = DIRECTION ( 'NONE',  ( -4.275831445896958607E-31, -1.000000000000000000, -1.224646799147353207E-16 ) ) ;
#103 = UNCERTAINTY_MEASURE_WITH_UNIT (LENGTH_MEASURE( 1.000000000000000082E-05 ), #35, 'distance_accuracy_value', 'NONE');
#104 = DIRECTION ( 'NONE',  ( 3.491481338843133355E-15, -0.0000000000000000000, 1.000000000000000000 ) ) ;
#105 = EDGE_LOOP ( 'NONE', ( #25 ) ) ;
#106 = CARTESIAN_POINT ( 'NONE',  ( 0.0000000000000000000, 0.0000000000000000000, 0.0000000000000000000 ) ) ;
#107 = PERSON ( 'UNSPECIFIED', 'UNSPECIFIED', 'UNSPECIFIED', ('UNSPECIFIED'), ('UNSPECIFIED'), ('UNSPECIFIED') ) ;
#108 = EDGE_LOOP ( 'NONE', ( #207 ) ) ;
#109 = CC_DESIGN_PERSON_AND_ORGANIZATION_ASSIGNMENT ( #227, #28, ( #30 ) ) ;
#110 = EDGE_LOOP ( 'NONE', ( #86 ) ) ;
#111 = CIRCLE ( 'NONE', #129, 1.999999999999999556 ) ;
#112 = LOCAL_TIME ( 8, 41, 55.00000000000000000, #13 ) ;
#113 = APPROVAL_ROLE ( '' ) ;
#114 = PERSON_AND_ORGANIZATION ( #107, #45 ) ;
#115 = AXIS2_PLACEMENT_3D ( 'NONE', #139, #37, #19 ) ;
#116 = APPROVAL_STATUS ( 'not_yet_approved' ) ;
#117 = CARTESIAN_POINT ( 'NONE',  ( 0.6000000000000085265, 0.0000000000000000000, 2.599999999999996536 ) ) ;
#118 = VERTEX_POINT ( 'NONE', #5 ) ;
#119 = DIRECTION ( 'NONE',  ( -3.491481338843133355E-15, 1.224646799147353207E-16, -1.000000000000000000 ) ) ;
#120 = FACE_OUTER_BOUND ( 'NONE', #172, .T. ) ;
#121 = APPLICATION_CONTEXT ( 'configuration controlled 3d designs of mechanical parts and assemblies' ) ;
#122 = EDGE_CURVE ( 'NONE', #241, #241, #74, .T. ) ;
#123 = DIRECTION ( 'NONE',  ( 3.491481338843133355E-15, -0.0000000000000000000, 1.000000000000000000 ) ) ;
#124 = DIRECTION ( 'NONE',  ( -4.275831445896958607E-31, -1.000000000000000000, -1.224646799147353207E-16 ) ) ;
#125 = CYLINDRICAL_SURFACE ( 'NONE', #179, 2.000000000000000000 ) ;
#126 = MANIFOLD_SOLID_BREP ( 'Corps-Déplacer/Copier1[1]', #10 ) ;
#127 = FACE_OUTER_BOUND ( 'NONE', #110, .T. ) ;
#128 = DIRECTION ( 'NONE',  ( 3.491481338843133355E-15, -0.0000000000000000000, 1.000000000000000000 ) ) ;
#129 = AXIS2_PLACEMENT_3D ( 'NONE', #77, #39, #138 ) ;
#130 = EDGE_LOOP ( 'NONE', ( #208 ) ) ;
#131 = EDGE_CURVE ( 'NONE', #183, #183, #171, .T. ) ;
#132 = DATE_AND_TIME ( #156, #100 ) ;
#133 = DATE_AND_TIME ( #88, #219 ) ;
#134 = CALENDAR_DATE ( 2021, 15, 11 ) ;
#135 = FACE_OUTER_BOUND ( 'NONE', #236, .T. ) ;
#136 = DIRECTION ( 'NONE',  ( 0.0000000000000000000, 0.0000000000000000000, 1.000000000000000000 ) ) ;
#137 = AXIS2_PLACEMENT_3D ( 'NONE', #184, #187, #43 ) ;
#138 = DIRECTION ( 'NONE',  ( 0.0000000000000000000, 1.000000000000000000, 0.0000000000000000000 ) ) ;
#139 = CARTESIAN_POINT ( 'NONE',  ( 5.430048750889028273E-14, 0.0000000000000000000, 15.55227774090930559 ) ) ;
#140 = DIRECTION ( 'NONE',  ( 3.491481338843133355E-15, -1.224646799147353207E-16, 1.000000000000000000 ) ) ;
#141 = DIRECTION ( 'NONE',  ( 1.000000000000000000, 0.0000000000000000000, -3.245393561681458416E-15 ) ) ;
#142 = CIRCLE ( 'NONE', #148, 0.5999999999999994227 ) ;
#143 = CC_DESIGN_SECURITY_CLASSIFICATION ( #94, ( #30 ) ) ;
#144 = ADVANCED_FACE ( 'NONE', ( #234, #206 ), #125, .T. ) ;
#145 = FACE_OUTER_BOUND ( 'NONE', #146, .T. ) ;
#146 = EDGE_LOOP ( 'NONE', ( #85 ) ) ;
#147 = EDGE_LOOP ( 'NONE', ( #64 ) ) ;
#148 = AXIS2_PLACEMENT_3D ( 'NONE', #96, #101, #182 ) ;
#149 = EDGE_CURVE ( 'NONE', #118, #118, #89, .T. ) ;
#150 = EDGE_LOOP ( 'NONE', ( #226 ) ) ;
#151 = ORIENTED_EDGE ( 'NONE', *, *, #122, .T. ) ;
#152 = DATE_AND_TIME ( #240, #196 ) ;
#153 = AXIS2_PLACEMENT_3D ( 'NONE', #160, #119, #198 ) ;
#154 = CC_DESIGN_PERSON_AND_ORGANIZATION_ASSIGNMENT ( #71, #92, ( #94 ) ) ;
#155 = COORDINATED_UNIVERSAL_TIME_OFFSET ( 1, 0, .AHEAD. ) ;
#156 = CALENDAR_DATE ( 2021, 15, 11 ) ;
#157 = ADVANCED_FACE ( 'NONE', ( #32, #120 ), #197, .T. ) ;
#158 = CARTESIAN_POINT ( 'NONE',  ( 9.077851480992143568E-15, 0.0000000000000000000, 2.599999999999999201 ) ) ;
#159 = FACE_OUTER_BOUND ( 'NONE', #6, .T. ) ;
#160 = CARTESIAN_POINT ( 'NONE',  ( 1.326762908760390675E-13, -4.653657836759942730E-15, 38.00000000000000711 ) ) ;
#161 = AXIS2_PLACEMENT_3D ( 'NONE', #166, #104, #141 ) ;
#162 = DIRECTION ( 'NONE',  ( 1.000000000000000000, 0.0000000000000000000, 0.0000000000000000000 ) ) ;
#163 = DIRECTION ( 'NONE',  ( -3.491481338843133355E-15, 1.224646799147353207E-16, -1.000000000000000000 ) ) ;
#164 = DIRECTION ( 'NONE',  ( 4.275831445896958607E-31, 1.000000000000000000, 1.224646799147353207E-16 ) ) ;
#165 = APPROVAL ( #116, 'UNSPECIFIED' ) ;
#166 = CARTESIAN_POINT ( 'NONE',  ( 1.088517521321739995E-14, 0.0000000000000000000, 3.117638090205027801 ) ) ;
#167 = APPROVAL_PERSON_ORGANIZATION ( #11, #169, #238 ) ;
#168 = ORIENTED_EDGE ( 'NONE', *, *, #7, .T. ) ;
#169 = APPROVAL ( #68, 'UNSPECIFIED' ) ;
#170 = EDGE_LOOP ( 'NONE', ( #168 ) ) ;
#171 = CIRCLE ( 'NONE', #161, 0.6681483474218594676 ) ;
#172 = EDGE_LOOP ( 'NONE', ( #83 ) ) ;
#173 = CC_DESIGN_DATE_AND_TIME_ASSIGNMENT ( #133, #176, ( #235 ) ) ;
#174 = PERSON_AND_ORGANIZATION ( #107, #45 ) ;
#175 = CIRCLE ( 'NONE', #153, 1.600000000000001865 ) ;
#176 = DATE_TIME_ROLE ( 'creation_date' ) ;
#177 = EDGE_CURVE ( 'NONE', #181, #181, #175, .T. ) ;
#178 =( NAMED_UNIT ( * ) PLANE_ANGLE_UNIT ( ) SI_UNIT ( $, .RADIAN. ) );
#179 = AXIS2_PLACEMENT_3D ( 'NONE', #106, #203, #164 ) ;
#180 = VERTEX_POINT ( 'NONE', #16 ) ;
#181 = VERTEX_POINT ( 'NONE', #76 ) ;
#182 = DIRECTION ( 'NONE',  ( 1.000000000000000000, 0.0000000000000000000, -3.614007241618351532E-15 ) ) ;
#183 = VERTEX_POINT ( 'NONE', #95 ) ;
#184 = CARTESIAN_POINT ( 'NONE',  ( 9.077851480992141991E-15, 0.0000000000000000000, 2.599999999999998757 ) ) ;
#185 = PLANE ( 'NONE',  #20 ) ;
#186 = APPROVAL ( #213, 'UNSPECIFIED' ) ;
#187 = DIRECTION ( 'NONE',  ( 3.491481338843133355E-15, -0.0000000000000000000, 1.000000000000000000 ) ) ;
#188 = DIRECTION ( 'NONE',  ( 1.000000000000000000, 0.0000000000000000000, -3.491481338843132961E-15 ) ) ;
#189 = EDGE_LOOP ( 'NONE', ( #192 ) ) ;
#190 = DIRECTION ( 'NONE',  ( -3.491481338843133355E-15, 1.224646799147353207E-16, -1.000000000000000000 ) ) ;
#191 = CARTESIAN_POINT ( 'NONE',  ( 1.326762908760390675E-13, -8.377713426430119900E-31, 38.00000000000000711 ) ) ;
#192 = ORIENTED_EDGE ( 'NONE', *, *, #31, .T. ) ;
#193 = PERSON_AND_ORGANIZATION_ROLE ( 'creator' ) ;
#194 = APPROVAL_ROLE ( '' ) ;
#195 = DATE_AND_TIME ( #51, #112 ) ;
#196 = LOCAL_TIME ( 8, 41, 55.00000000000000000, #230 ) ;
#197 = CONICAL_SURFACE ( 'NONE', #209, 1.999999999999999556, 0.7853981633974485010 ) ;
#198 = DIRECTION ( 'NONE',  ( 0.0000000000000000000, 1.000000000000000000, 0.0000000000000000000 ) ) ;
#199 = CC_DESIGN_PERSON_AND_ORGANIZATION_ASSIGNMENT ( #57, #79, ( #55 ) ) ;
#200 = DIRECTION ( 'NONE',  ( -3.491481338843133355E-15, 1.224646799147353207E-16, -1.000000000000000000 ) ) ;
#201 = CARTESIAN_POINT ( 'NONE',  ( -4.275831445896957731E-31, 1.499759782661857608E-32, -1.224646799147353207E-16 ) ) ;
#202 = CARTESIAN_POINT ( 'NONE',  ( 2.000000000000028422, 0.0000000000000000000, 8.088176125771347813 ) ) ;
#203 = DIRECTION ( 'NONE',  ( -3.491481338843133355E-15, 1.224646799147353207E-16, -1.000000000000000000 ) ) ;
#204 = DIRECTION ( 'NONE',  ( 4.275831445896958607E-31, 1.000000000000000000, 1.224646799147353207E-16 ) ) ;
#205 = CARTESIAN_POINT ( 'NONE',  ( 2.823971600840723660E-14, 0.0000000000000000000, 8.088176125771354918 ) ) ;
#206 = FACE_OUTER_BOUND ( 'NONE', #23, .T. ) ;
#207 = ORIENTED_EDGE ( 'NONE', *, *, #177, .T. ) ;
#208 = ORIENTED_EDGE ( 'NONE', *, *, #131, .T. ) ;
#209 = AXIS2_PLACEMENT_3D ( 'NONE', #215, #200, #17 ) ;
#210 = LOCAL_TIME ( 8, 41, 55.00000000000000000, #155 ) ;
#211 = SECURITY_CLASSIFICATION_LEVEL ( 'unclassified' ) ;
#212 = ADVANCED_FACE ( 'NONE', ( #216, #159 ), #22, .F. ) ;
#213 = APPROVAL_STATUS ( 'not_yet_approved' ) ;
#214 = APPROVAL_PERSON_ORGANIZATION ( #47, #165, #194 ) ;
#215 = CARTESIAN_POINT ( 'NONE',  ( 1.312796983405018394E-13, -4.604671964794048513E-15, 37.60000000000000853 ) ) ;
#216 = FACE_OUTER_BOUND ( 'NONE', #170, .T. ) ;
#217 = APPLICATION_PROTOCOL_DEFINITION ( 'international standard', 'config_control_design', 1994, #121 ) ;
#218 = ADVANCED_FACE ( 'NONE', ( #33, #135 ), #73, .T. ) ;
#219 = LOCAL_TIME ( 8, 41, 55.00000000000000000, #29 ) ;
#220 = DIRECTION ( 'NONE',  ( 1.000000000000000000, 0.0000000000000000000, -3.491481338843132961E-15 ) ) ;
#221 = DIRECTION ( 'NONE',  ( 3.491481338843133355E-15, -0.0000000000000000000, 1.000000000000000000 ) ) ;
#222 = PLANE ( 'NONE',  #40 ) ;
#223 = DIRECTION ( 'NONE',  ( 4.275831445896958607E-31, 1.000000000000000000, 1.224646799147353207E-16 ) ) ;
#224 = ORIENTED_EDGE ( 'NONE', *, *, #131, .F. ) ;
#225 = APPROVAL_DATE_TIME ( #152, #169 ) ;
#226 = ORIENTED_EDGE ( 'NONE', *, *, #7, .F. ) ;
#227 = PERSON_AND_ORGANIZATION ( #107, #45 ) ;
#228 = CIRCLE ( 'NONE', #137, 0.5999999999999994227 ) ;
#229 = DATE_AND_TIME ( #134, #210 ) ;
#230 = COORDINATED_UNIVERSAL_TIME_OFFSET ( 1, 0, .AHEAD. ) ;
#231 = APPROVAL_DATE_TIME ( #132, #165 ) ;
#232 = VERTEX_POINT ( 'NONE', #117 ) ;
#233 = CARTESIAN_POINT ( 'NONE',  ( 0.6000000000000085265, 0.0000000000000000000, 2.599999999999996536 ) ) ;
#234 = FACE_OUTER_BOUND ( 'NONE', #189, .T. ) ;
#235 = PRODUCT_DEFINITION ( 'UNKNOWN', '', #30, #46 ) ;
#236 = EDGE_LOOP ( 'NONE', ( #9 ) ) ;
#237 = CC_DESIGN_APPROVAL ( #165, ( #30 ) ) ;
#238 = APPROVAL_ROLE ( '' ) ;
#239 = AXIS2_PLACEMENT_3D ( 'NONE', #98, #140, #124 ) ;
#240 = CALENDAR_DATE ( 2021, 15, 11 ) ;
#241 = VERTEX_POINT ( 'NONE', #202 ) ;
#242 = AXIS2_PLACEMENT_3D ( 'NONE', #191, #190, #223 ) ;
#243 = CC_DESIGN_APPROVAL ( #186, ( #94 ) ) ;
ENDSEC;
END-ISO-10303-21;
