ISO-10303-21;
HEADER;
FILE_DESCRIPTION (( 'STEP AP203' ),
    '1' );
FILE_NAME ('334891.step',
    '2021-11-15T07:41:54',
    ( '' ),
    ( '' ),
    'SwSTEP 2.0',
    'SolidWorks 2019',
    '' );
FILE_SCHEMA (( 'CONFIG_CONTROL_DESIGN' ));
ENDSEC;

DATA;
#1 = CARTESIAN_POINT ( 'NONE',  ( 1.312796983405018394E-13, 1.999999999999994893, 37.60000000000000853 ) ) ;
#2 = CARTESIAN_POINT ( 'NONE',  ( 0.5500000000000080380, 0.0000000000000000000, 2.399999999999996358 ) ) ;
#3 = DIRECTION ( 'NONE',  ( 4.275831445896958607E-31, 1.000000000000000000, 1.224646799147353207E-16 ) ) ;
#4 = AXIS2_PLACEMENT_3D ( 'NONE', #210, #208, #129 ) ;
#5 = ADVANCED_FACE ( 'NONE', ( #9 ), #67, .F. ) ;
#6 = DIRECTION ( 'NONE',  ( 1.000000000000000000, 0.0000000000000000000, -3.154042683594196402E-15 ) ) ;
#7 = PERSON_AND_ORGANIZATION ( #163, #192 ) ;
#8 = CARTESIAN_POINT ( 'NONE',  ( 8.379555213223516897E-15, -5.204170427930420297E-16, 2.399999999999999467 ) ) ;
#9 = FACE_OUTER_BOUND ( 'NONE', #128, .T. ) ;
#10 = APPLICATION_PROTOCOL_DEFINITION ( 'international standard', 'config_control_design', 1994, #151 ) ;
#11 = AXIS2_PLACEMENT_3D ( 'NONE', #59, #200, #3 ) ;
#12 = ORIENTED_EDGE ( 'NONE', *, *, #238, .T. ) ;
#13 = PERSON_AND_ORGANIZATION_ROLE ( 'creator' ) ;
#14 = APPROVAL_STATUS ( 'not_yet_approved' ) ;
#15 = EDGE_CURVE ( 'NONE', #74, #74, #108, .T. ) ;
#16 = LOCAL_TIME ( 8, 41, 54.00000000000000000, #127 ) ;
#17 = CC_DESIGN_PERSON_AND_ORGANIZATION_ASSIGNMENT ( #7, #13, ( #236 ) ) ;
#18 = PRODUCT_DEFINITION_SHAPE ( 'NONE', 'NONE',  #149 ) ;
#19 = AXIS2_PLACEMENT_3D ( 'NONE', #8, #211, #88 ) ;
#20 = DIRECTION ( 'NONE',  ( -4.275831445896958607E-31, -1.000000000000000000, -1.224646799147353207E-16 ) ) ;
#21 = FACE_OUTER_BOUND ( 'NONE', #57, .T. ) ;
#22 = DATE_AND_TIME ( #196, #206 ) ;
#23 = PLANE ( 'NONE',  #133 ) ;
#24 = MECHANICAL_CONTEXT ( 'NONE', #144, 'mechanical' ) ;
#25 = ORIENTED_EDGE ( 'NONE', *, *, #82, .T. ) ;
#26 = DIRECTION ( 'NONE',  ( 1.000000000000000000, 0.0000000000000000000, -3.469446951953614189E-15 ) ) ;
#27 = CALENDAR_DATE ( 2021, 15, 11 ) ;
#28 = LOCAL_TIME ( 8, 41, 54.00000000000000000, #164 ) ;
#29 = CARTESIAN_POINT ( 'NONE',  ( 0.0000000000000000000, 0.0000000000000000000, 0.0000000000000000000 ) ) ;
#30 = CC_DESIGN_APPROVAL ( #167, ( #149 ) ) ;
#31 = CYLINDRICAL_SURFACE ( 'NONE', #138, 2.000000000000000000 ) ;
#32 = MANIFOLD_SOLID_BREP ( 'Corps-Déplacer/Copier1[1]', #98 ) ;
#33 = DIRECTION ( 'NONE',  ( 0.0000000000000000000, 1.000000000000000000, 0.0000000000000000000 ) ) ;
#34 = AXIS2_PLACEMENT_3D ( 'NONE', #213, #38, #104 ) ;
#35 = PRODUCT_RELATED_PRODUCT_CATEGORY ( 'detail', '', ( #168 ) ) ;
#36 = ORIENTED_EDGE ( 'NONE', *, *, #186, .F. ) ;
#37 = PERSON_AND_ORGANIZATION ( #163, #192 ) ;
#38 = DIRECTION ( 'NONE',  ( 3.491481338843133355E-15, -0.0000000000000000000, 1.000000000000000000 ) ) ;
#39 = CC_DESIGN_DATE_AND_TIME_ASSIGNMENT ( #41, #212, ( #91 ) ) ;
#40 = AXIS2_PLACEMENT_3D ( 'NONE', #66, #81, #6 ) ;
#41 = DATE_AND_TIME ( #214, #16 ) ;
#42 = VERTEX_POINT ( 'NONE', #1 ) ;
#43 = EDGE_LOOP ( 'NONE', ( #105 ) ) ;
#44 = PERSON_AND_ORGANIZATION_ROLE ( 'design_owner' ) ;
#45 = VERTEX_POINT ( 'NONE', #223 ) ;
#46 = FACE_OUTER_BOUND ( 'NONE', #85, .T. ) ;
#47 = DATE_AND_TIME ( #160, #189 ) ;
#48 = DIRECTION ( 'NONE',  ( -3.491481338843133355E-15, 1.224646799147353207E-16, -1.000000000000000000 ) ) ;
#49 = PERSON_AND_ORGANIZATION ( #163, #192 ) ;
#50 = AXIS2_PLACEMENT_3D ( 'NONE', #29, #62, #90 ) ;
#51 = ADVANCED_BREP_SHAPE_REPRESENTATION ( '334891', ( #32, #115, #50 ), #79 ) ;
#52 = CC_DESIGN_PERSON_AND_ORGANIZATION_ASSIGNMENT ( #137, #44, ( #168 ) ) ;
#53 = VERTEX_POINT ( 'NONE', #2 ) ;
#54 = DIRECTION ( 'NONE',  ( -3.491481338843133355E-15, 1.224646799147353207E-16, -1.000000000000000000 ) ) ;
#55 = AXIS2_PLACEMENT_3D ( 'NONE', #171, #54, #95 ) ;
#56 = APPROVAL ( #14, 'UNSPECIFIED' ) ;
#57 = EDGE_LOOP ( 'NONE', ( #181 ) ) ;
#58 = ADVANCED_FACE ( 'NONE', ( #21, #46 ), #143, .T. ) ;
#59 = CARTESIAN_POINT ( 'NONE',  ( 1.326762908760390675E-13, -8.377713426430119900E-31, 38.00000000000000711 ) ) ;
#60 = DATE_AND_TIME ( #184, #28 ) ;
#61 = DIRECTION ( 'NONE',  ( 3.491481338843133355E-15, -0.0000000000000000000, 1.000000000000000000 ) ) ;
#62 = DIRECTION ( 'NONE',  ( 0.0000000000000000000, 0.0000000000000000000, 1.000000000000000000 ) ) ;
#63 =( NAMED_UNIT ( * ) PLANE_ANGLE_UNIT ( ) SI_UNIT ( $, .RADIAN. ) );
#64 = DIRECTION ( 'NONE',  ( 3.491481338843133355E-15, -0.0000000000000000000, 1.000000000000000000 ) ) ;
#65 = APPROVAL_PERSON_ORGANIZATION ( #37, #179, #202 ) ;
#66 = CARTESIAN_POINT ( 'NONE',  ( 8.379555213223513742E-15, 0.0000000000000000000, 2.399999999999998135 ) ) ;
#67 = PLANE ( 'NONE',  #11 ) ;
#68 = APPROVAL_STATUS ( 'not_yet_approved' ) ;
#69 = DIRECTION ( 'NONE',  ( 3.491481338843133355E-15, -0.0000000000000000000, 1.000000000000000000 ) ) ;
#70 = CONICAL_SURFACE ( 'NONE', #55, 1.999999999999999556, 0.7853981633974485010 ) ;
#71 = DIRECTION ( 'NONE',  ( -3.491481338843133355E-15, 1.224646799147353207E-16, -1.000000000000000000 ) ) ;
#72 = CC_DESIGN_DATE_AND_TIME_ASSIGNMENT ( #182, #109, ( #149 ) ) ;
#73 = VERTEX_POINT ( 'NONE', #111 ) ;
#74 = VERTEX_POINT ( 'NONE', #222 ) ;
#75 = CC_DESIGN_APPROVAL ( #56, ( #236 ) ) ;
#76 = CARTESIAN_POINT ( 'NONE',  ( 8.379555213223513742E-15, 0.0000000000000000000, 2.399999999999998135 ) ) ;
#77 = FACE_BOUND ( 'NONE', #120, .T. ) ;
#78 = ORIENTED_EDGE ( 'NONE', *, *, #15, .F. ) ;
#79 =( GEOMETRIC_REPRESENTATION_CONTEXT ( 3 ) GLOBAL_UNCERTAINTY_ASSIGNED_CONTEXT ( ( #99 ) ) GLOBAL_UNIT_ASSIGNED_CONTEXT ( ( #153, #63, #150 ) ) REPRESENTATION_CONTEXT ( 'NONE', 'WORKASPACE' ) );
#80 = CIRCLE ( 'NONE', #117, 0.6181483474218597562 ) ;
#81 = DIRECTION ( 'NONE',  ( 3.491481338843133355E-15, -0.0000000000000000000, 1.000000000000000000 ) ) ;
#82 = EDGE_CURVE ( 'NONE', #73, #73, #148, .T. ) ;
#83 = DIRECTION ( 'NONE',  ( -3.491481338843133355E-15, 1.224646799147353207E-16, -1.000000000000000000 ) ) ;
#84 = SHAPE_DEFINITION_REPRESENTATION ( #18, #51 ) ;
#85 = EDGE_LOOP ( 'NONE', ( #209 ) ) ;
#86 = EDGE_LOOP ( 'NONE', ( #122 ) ) ;
#87 = PERSON_AND_ORGANIZATION ( #163, #192 ) ;
#88 = DIRECTION ( 'NONE',  ( -4.275831445896958607E-31, -1.000000000000000000, -1.224646799147353207E-16 ) ) ;
#89 = ADVANCED_FACE ( 'NONE', ( #161 ), #235, .T. ) ;
#90 = DIRECTION ( 'NONE',  ( 1.000000000000000000, 0.0000000000000000000, 0.0000000000000000000 ) ) ;
#91 = SECURITY_CLASSIFICATION ( '', '', #220 ) ;
#92 = VERTEX_POINT ( 'NONE', #226 ) ;
#93 = ORIENTED_EDGE ( 'NONE', *, *, #97, .T. ) ;
#94 = EDGE_LOOP ( 'NONE', ( #100 ) ) ;
#95 = DIRECTION ( 'NONE',  ( 0.0000000000000000000, 1.000000000000000000, 0.0000000000000000000 ) ) ;
#96 = EDGE_LOOP ( 'NONE', ( #25 ) ) ;
#97 = EDGE_CURVE ( 'NONE', #187, #187, #80, .T. ) ;
#98 = CLOSED_SHELL ( 'NONE', ( #232, #190, #5, #134, #193, #106 ) ) ;
#99 = UNCERTAINTY_MEASURE_WITH_UNIT (LENGTH_MEASURE( 1.000000000000000082E-05 ), #153, 'distance_accuracy_value', 'NONE');
#100 = ORIENTED_EDGE ( 'NONE', *, *, #114, .T. ) ;
#101 = CARTESIAN_POINT ( 'NONE',  ( 8.379555213223516897E-15, -5.204170427930420297E-16, 2.399999999999999467 ) ) ;
#102 = CC_DESIGN_PERSON_AND_ORGANIZATION_ASSIGNMENT ( #162, #240, ( #236 ) ) ;
#103 = CARTESIAN_POINT ( 'NONE',  ( 0.6181483474218699703, 0.0000000000000000000, 2.917638090205024959 ) ) ;
#104 = DIRECTION ( 'NONE',  ( 1.000000000000000000, 0.0000000000000000000, -3.491481338843133750E-15 ) ) ;
#105 = ORIENTED_EDGE ( 'NONE', *, *, #140, .T. ) ;
#106 = ADVANCED_FACE ( 'NONE', ( #107 ), #23, .F. ) ;
#107 = FACE_OUTER_BOUND ( 'NONE', #231, .T. ) ;
#108 = CIRCLE ( 'NONE', #116, 2.000000000000000000 ) ;
#109 = DATE_TIME_ROLE ( 'creation_date' ) ;
#110 = AXIS2_PLACEMENT_3D ( 'NONE', #175, #224, #33 ) ;
#111 = CARTESIAN_POINT ( 'NONE',  ( 0.5500000000000080380, 0.0000000000000000000, 2.399999999999996358 ) ) ;
#112 = APPROVAL_PERSON_ORGANIZATION ( #142, #167, #156 ) ;
#113 = FACE_BOUND ( 'NONE', #43, .T. ) ;
#114 = EDGE_CURVE ( 'NONE', #42, #42, #176, .T. ) ;
#115 = MANIFOLD_SOLID_BREP ( 'Corps-Déplacer/Copier1[2]', #203 ) ;
#116 = AXIS2_PLACEMENT_3D ( 'NONE', #135, #61, #26 ) ;
#117 = AXIS2_PLACEMENT_3D ( 'NONE', #124, #64, #141 ) ;
#118 = CARTESIAN_POINT ( 'NONE',  ( -4.275831445896957731E-31, 1.499759782661857608E-32, -1.224646799147353207E-16 ) ) ;
#119 = COORDINATED_UNIVERSAL_TIME_OFFSET ( 1, 0, .AHEAD. ) ;
#120 = EDGE_LOOP ( 'NONE', ( #93 ) ) ;
#121 = APPROVAL_STATUS ( 'not_yet_approved' ) ;
#122 = ORIENTED_EDGE ( 'NONE', *, *, #114, .F. ) ;
#123 = PERSON_AND_ORGANIZATION ( #163, #192 ) ;
#124 = CARTESIAN_POINT ( 'NONE',  ( 1.018687894544877170E-14, 0.0000000000000000000, 2.917638090205027179 ) ) ;
#125 = COORDINATED_UNIVERSAL_TIME_OFFSET ( 1, 0, .AHEAD. ) ;
#126 = AXIS2_PLACEMENT_3D ( 'NONE', #227, #69, #165 ) ;
#127 = COORDINATED_UNIVERSAL_TIME_OFFSET ( 1, 0, .AHEAD. ) ;
#128 = EDGE_LOOP ( 'NONE', ( #139 ) ) ;
#129 = DIRECTION ( 'NONE',  ( 1.000000000000000000, 0.0000000000000000000, -3.491481338843133750E-15 ) ) ;
#130 = ADVANCED_FACE ( 'NONE', ( #239 ), #219, .T. ) ;
#131 = ORIENTED_EDGE ( 'NONE', *, *, #15, .T. ) ;
#132 = DESIGN_CONTEXT ( 'detailed design', #151, 'design' ) ;
#133 = AXIS2_PLACEMENT_3D ( 'NONE', #101, #183, #20 ) ;
#134 = ADVANCED_FACE ( 'NONE', ( #233, #194 ), #215, .F. ) ;
#135 = CARTESIAN_POINT ( 'NONE',  ( 2.819293902815068632E-14, 0.0000000000000000000, 8.074778666149803996 ) ) ;
#136 = PERSON_AND_ORGANIZATION_ROLE ( 'classification_officer' ) ;
#137 = PERSON_AND_ORGANIZATION ( #163, #192 ) ;
#138 = AXIS2_PLACEMENT_3D ( 'NONE', #243, #71, #166 ) ;
#139 = ORIENTED_EDGE ( 'NONE', *, *, #140, .F. ) ;
#140 = EDGE_CURVE ( 'NONE', #45, #45, #169, .T. ) ;
#141 = DIRECTION ( 'NONE',  ( 1.000000000000000000, 0.0000000000000000000, -3.507902842440450416E-15 ) ) ;
#142 = PERSON_AND_ORGANIZATION ( #163, #192 ) ;
#143 = CYLINDRICAL_SURFACE ( 'NONE', #146, 0.5499999999999999334 ) ;
#144 = APPLICATION_CONTEXT ( 'configuration controlled 3d designs of mechanical parts and assemblies' ) ;
#145 = APPROVAL_DATE_TIME ( #60, #56 ) ;
#146 = AXIS2_PLACEMENT_3D ( 'NONE', #159, #237, #157 ) ;
#147 = FACE_OUTER_BOUND ( 'NONE', #94, .T. ) ;
#148 = CIRCLE ( 'NONE', #40, 0.5499999999999997113 ) ;
#149 = PRODUCT_DEFINITION ( 'UNKNOWN', '', #236, #132 ) ;
#150 =( NAMED_UNIT ( * ) SI_UNIT ( $, .STERADIAN. ) SOLID_ANGLE_UNIT ( ) );
#151 = APPLICATION_CONTEXT ( 'configuration controlled 3d designs of mechanical parts and assemblies' ) ;
#152 = CC_DESIGN_APPROVAL ( #179, ( #91 ) ) ;
#153 =( LENGTH_UNIT ( ) NAMED_UNIT ( * ) SI_UNIT ( .MILLI., .METRE. ) );
#154 = DIRECTION ( 'NONE',  ( 4.275831445896958607E-31, 1.000000000000000000, 1.224646799147353207E-16 ) ) ;
#155 = DIRECTION ( 'NONE',  ( 0.0000000000000000000, 1.000000000000000000, 0.0000000000000000000 ) ) ;
#156 = APPROVAL_ROLE ( '' ) ;
#157 = DIRECTION ( 'NONE',  ( 1.000000000000000000, 0.0000000000000000000, -3.491481338843133750E-15 ) ) ;
#158 = CIRCLE ( 'NONE', #4, 0.5500000000000001554 ) ;
#159 = CARTESIAN_POINT ( 'NONE',  ( 0.0000000000000000000, 0.0000000000000000000, 0.0000000000000000000 ) ) ;
#160 = CALENDAR_DATE ( 2021, 15, 11 ) ;
#161 = FACE_OUTER_BOUND ( 'NONE', #96, .T. ) ;
#162 = PERSON_AND_ORGANIZATION ( #163, #192 ) ;
#163 = PERSON ( 'UNSPECIFIED', 'UNSPECIFIED', 'UNSPECIFIED', ('UNSPECIFIED'), ('UNSPECIFIED'), ('UNSPECIFIED') ) ;
#164 = COORDINATED_UNIVERSAL_TIME_OFFSET ( 1, 0, .AHEAD. ) ;
#165 = DIRECTION ( 'NONE',  ( 1.000000000000000000, 0.0000000000000000000, -3.469446951953614189E-15 ) ) ;
#166 = DIRECTION ( 'NONE',  ( 4.275831445896958607E-31, 1.000000000000000000, 1.224646799147353207E-16 ) ) ;
#167 = APPROVAL ( #68, 'UNSPECIFIED' ) ;
#168 = PRODUCT ( '334891', '334891', '', ( #24 ) ) ;
#169 = CIRCLE ( 'NONE', #110, 1.600000000000001865 ) ;
#170 = FACE_OUTER_BOUND ( 'NONE', #228, .T. ) ;
#171 = CARTESIAN_POINT ( 'NONE',  ( 1.312796983405018394E-13, -4.604671964794048513E-15, 37.60000000000000853 ) ) ;
#172 = EDGE_LOOP ( 'NONE', ( #217 ) ) ;
#173 = LOCAL_TIME ( 8, 41, 54.00000000000000000, #125 ) ;
#174 = CC_DESIGN_PERSON_AND_ORGANIZATION_ASSIGNMENT ( #87, #234, ( #149 ) ) ;
#175 = CARTESIAN_POINT ( 'NONE',  ( 1.326762908760390675E-13, -4.653657836759942730E-15, 38.00000000000000711 ) ) ;
#176 = CIRCLE ( 'NONE', #221, 1.999999999999999556 ) ;
#177 = CARTESIAN_POINT ( 'NONE',  ( 1.312796983405018394E-13, -4.604671964794048513E-15, 37.60000000000000853 ) ) ;
#178 = APPROVAL_DATE_TIME ( #22, #179 ) ;
#179 = APPROVAL ( #121, 'UNSPECIFIED' ) ;
#180 = EDGE_LOOP ( 'NONE', ( #12 ) ) ;
#181 = ORIENTED_EDGE ( 'NONE', *, *, #186, .T. ) ;
#182 = DATE_AND_TIME ( #27, #173 ) ;
#183 = DIRECTION ( 'NONE',  ( 3.491481338843133355E-15, -1.224646799147353207E-16, 1.000000000000000000 ) ) ;
#184 = CALENDAR_DATE ( 2021, 15, 11 ) ;
#185 = APPROVAL_DATE_TIME ( #47, #167 ) ;
#186 = EDGE_CURVE ( 'NONE', #92, #92, #158, .T. ) ;
#187 = VERTEX_POINT ( 'NONE', #103 ) ;
#188 = DIRECTION ( 'NONE',  ( 1.000000000000000000, 0.0000000000000000000, -3.154042683594196402E-15 ) ) ;
#189 = LOCAL_TIME ( 8, 41, 54.00000000000000000, #218 ) ;
#190 = ADVANCED_FACE ( 'NONE', ( #113, #191 ), #70, .T. ) ;
#191 = FACE_OUTER_BOUND ( 'NONE', #86, .T. ) ;
#192 = ORGANIZATION ( 'UNSPECIFIED', 'UNSPECIFIED', '' ) ;
#193 = ADVANCED_FACE ( 'NONE', ( #170, #77 ), #201, .T. ) ;
#194 = FACE_OUTER_BOUND ( 'NONE', #172, .T. ) ;
#195 = ORIENTED_EDGE ( 'NONE', *, *, #238, .F. ) ;
#196 = CALENDAR_DATE ( 2021, 15, 11 ) ;
#197 = CIRCLE ( 'NONE', #230, 0.5499999999999997113 ) ;
#198 = EDGE_LOOP ( 'NONE', ( #131 ) ) ;
#199 = APPROVAL_ROLE ( '' ) ;
#200 = DIRECTION ( 'NONE',  ( -3.491481338843133355E-15, 1.224646799147353207E-16, -1.000000000000000000 ) ) ;
#201 = CONICAL_SURFACE ( 'NONE', #126, 4.000000000000000000, 0.2617993877991428020 ) ;
#202 = APPROVAL_ROLE ( '' ) ;
#203 = CLOSED_SHELL ( 'NONE', ( #89, #58, #130 ) ) ;
#204 = DIRECTION ( 'NONE',  ( 3.491481338843133355E-15, -0.0000000000000000000, 1.000000000000000000 ) ) ;
#205 = APPLICATION_PROTOCOL_DEFINITION ( 'international standard', 'config_control_design', 1994, #144 ) ;
#206 = LOCAL_TIME ( 8, 41, 54.00000000000000000, #119 ) ;
#207 = FACE_OUTER_BOUND ( 'NONE', #198, .T. ) ;
#208 = DIRECTION ( 'NONE',  ( 3.491481338843133355E-15, -0.0000000000000000000, 1.000000000000000000 ) ) ;
#209 = ORIENTED_EDGE ( 'NONE', *, *, #82, .F. ) ;
#210 = CARTESIAN_POINT ( 'NONE',  ( -1.710332578358783092E-30, 0.0000000000000000000, -4.898587196589412829E-16 ) ) ;
#211 = DIRECTION ( 'NONE',  ( 3.491481338843133355E-15, -1.224646799147353207E-16, 1.000000000000000000 ) ) ;
#212 = DATE_TIME_ROLE ( 'classification_date' ) ;
#213 = CARTESIAN_POINT ( 'NONE',  ( 8.379555213223513742E-15, 0.0000000000000000000, 2.399999999999998579 ) ) ;
#214 = CALENDAR_DATE ( 2021, 15, 11 ) ;
#215 = TOROIDAL_SURFACE ( 'NONE', #34, 2.549999999999999822, 2.000000000000000000 ) ;
#216 = EDGE_LOOP ( 'NONE', ( #36 ) ) ;
#217 = ORIENTED_EDGE ( 'NONE', *, *, #97, .F. ) ;
#218 = COORDINATED_UNIVERSAL_TIME_OFFSET ( 1, 0, .AHEAD. ) ;
#219 = PLANE ( 'NONE',  #225 ) ;
#220 = SECURITY_CLASSIFICATION_LEVEL ( 'unclassified' ) ;
#221 = AXIS2_PLACEMENT_3D ( 'NONE', #177, #83, #155 ) ;
#222 = CARTESIAN_POINT ( 'NONE',  ( 2.000000000000028422, 0.0000000000000000000, 8.074778666149796891 ) ) ;
#223 = CARTESIAN_POINT ( 'NONE',  ( 1.326762908760390675E-13, 1.599999999999997202, 38.00000000000000711 ) ) ;
#224 = DIRECTION ( 'NONE',  ( -3.491481338843133355E-15, 1.224646799147353207E-16, -1.000000000000000000 ) ) ;
#225 = AXIS2_PLACEMENT_3D ( 'NONE', #118, #48, #154 ) ;
#226 = CARTESIAN_POINT ( 'NONE',  ( 0.5500000000000001554, 0.0000000000000000000, -2.410173456022665516E-15 ) ) ;
#227 = CARTESIAN_POINT ( 'NONE',  ( 5.425371052863373876E-14, 0.0000000000000000000, 15.53888028128775467 ) ) ;
#228 = EDGE_LOOP ( 'NONE', ( #78 ) ) ;
#229 = CC_DESIGN_SECURITY_CLASSIFICATION ( #91, ( #236 ) ) ;
#230 = AXIS2_PLACEMENT_3D ( 'NONE', #76, #204, #188 ) ;
#231 = EDGE_LOOP ( 'NONE', ( #195 ) ) ;
#232 = ADVANCED_FACE ( 'NONE', ( #147, #207 ), #31, .T. ) ;
#233 = FACE_OUTER_BOUND ( 'NONE', #180, .T. ) ;
#234 = PERSON_AND_ORGANIZATION_ROLE ( 'creator' ) ;
#235 = PLANE ( 'NONE',  #19 ) ;
#236 = PRODUCT_DEFINITION_FORMATION_WITH_SPECIFIED_SOURCE ( 'ANY', '', #168, .NOT_KNOWN. ) ;
#237 = DIRECTION ( 'NONE',  ( 3.491481338843133355E-15, -0.0000000000000000000, 1.000000000000000000 ) ) ;
#238 = EDGE_CURVE ( 'NONE', #53, #53, #197, .T. ) ;
#239 = FACE_OUTER_BOUND ( 'NONE', #216, .T. ) ;
#240 = PERSON_AND_ORGANIZATION_ROLE ( 'design_supplier' ) ;
#241 = CC_DESIGN_PERSON_AND_ORGANIZATION_ASSIGNMENT ( #49, #136, ( #91 ) ) ;
#242 = APPROVAL_PERSON_ORGANIZATION ( #123, #56, #199 ) ;
#243 = CARTESIAN_POINT ( 'NONE',  ( 0.0000000000000000000, 0.0000000000000000000, 0.0000000000000000000 ) ) ;
ENDSEC;
END-ISO-10303-21;
