ISO-10303-21;
HEADER;
FILE_DESCRIPTION (( 'STEP AP203' ),
    '1' );
FILE_NAME ('334890.step',
    '2021-11-15T07:41:54',
    ( '' ),
    ( '' ),
    'SwSTEP 2.0',
    'SolidWorks 2019',
    '' );
FILE_SCHEMA (( 'CONFIG_CONTROL_DESIGN' ));
ENDSEC;

DATA;
#1 = APPROVAL_ROLE ( '' ) ;
#2 = UNCERTAINTY_MEASURE_WITH_UNIT (LENGTH_MEASURE( 1.000000000000000082E-05 ), #187, 'distance_accuracy_value', 'NONE');
#3 = PRODUCT_RELATED_PRODUCT_CATEGORY ( 'detail', '', ( #235 ) ) ;
#4 = ORIENTED_EDGE ( 'NONE', *, *, #166, .T. ) ;
#5 = PRODUCT_DEFINITION_FORMATION_WITH_SPECIFIED_SOURCE ( 'ANY', '', #235, .NOT_KNOWN. ) ;
#6 = FACE_OUTER_BOUND ( 'NONE', #40, .T. ) ;
#7 = DIRECTION ( 'NONE',  ( 3.491481338843133355E-15, -0.0000000000000000000, 1.000000000000000000 ) ) ;
#8 = CIRCLE ( 'NONE', #36, 2.000000000000000000 ) ;
#9 = DIRECTION ( 'NONE',  ( -3.491481338843133355E-15, 1.224646799147353207E-16, -1.000000000000000000 ) ) ;
#10 = APPROVAL_ROLE ( '' ) ;
#11 = DIRECTION ( 'NONE',  ( 1.000000000000000000, 0.0000000000000000000, -3.469446951953614189E-15 ) ) ;
#12 = CARTESIAN_POINT ( 'NONE',  ( 0.0000000000000000000, 0.0000000000000000000, 0.0000000000000000000 ) ) ;
#13 = PLANE ( 'NONE',  #110 ) ;
#14 = FACE_OUTER_BOUND ( 'NONE', #80, .T. ) ;
#15 = CALENDAR_DATE ( 2021, 15, 11 ) ;
#16 = CARTESIAN_POINT ( 'NONE',  ( 2.000000000000028422, 0.0000000000000000000, 8.061381206528242416 ) ) ;
#17 = ADVANCED_FACE ( 'NONE', ( #63, #172 ), #213, .T. ) ;
#18 = VERTEX_POINT ( 'NONE', #114 ) ;
#19 = DATE_TIME_ROLE ( 'creation_date' ) ;
#20 = FACE_OUTER_BOUND ( 'NONE', #23, .T. ) ;
#21 = CIRCLE ( 'NONE', #32, 0.4999999999999995559 ) ;
#22 = ORIENTED_EDGE ( 'NONE', *, *, #206, .F. ) ;
#23 = EDGE_LOOP ( 'NONE', ( #136 ) ) ;
#24 = AXIS2_PLACEMENT_3D ( 'NONE', #12, #161, #201 ) ;
#25 = DIRECTION ( 'NONE',  ( 4.275831445896958607E-31, 1.000000000000000000, 1.224646799147353207E-16 ) ) ;
#26 = DIRECTION ( 'NONE',  ( 4.275831445896958607E-31, 1.000000000000000000, 1.224646799147353207E-16 ) ) ;
#27 = CARTESIAN_POINT ( 'NONE',  ( -1.710332578358783092E-30, 0.0000000000000000000, -4.898587196589412829E-16 ) ) ;
#28 = MANIFOLD_SOLID_BREP ( 'Corps-Déplacer/Copier1[2]', #99 ) ;
#29 = FACE_OUTER_BOUND ( 'NONE', #95, .T. ) ;
#30 = DIRECTION ( 'NONE',  ( -3.491481338843133355E-15, 1.224646799147353207E-16, -1.000000000000000000 ) ) ;
#31 = DIRECTION ( 'NONE',  ( 4.275831445896958607E-31, 1.000000000000000000, 1.224646799147353207E-16 ) ) ;
#32 = AXIS2_PLACEMENT_3D ( 'NONE', #234, #106, #215 ) ;
#33 = APPLICATION_PROTOCOL_DEFINITION ( 'international standard', 'config_control_design', 1994, #55 ) ;
#34 = DATE_AND_TIME ( #35, #224 ) ;
#35 = CALENDAR_DATE ( 2021, 15, 11 ) ;
#36 = AXIS2_PLACEMENT_3D ( 'NONE', #109, #68, #11 ) ;
#37 = PERSON_AND_ORGANIZATION_ROLE ( 'creator' ) ;
#38 = LOCAL_TIME ( 8, 41, 54.00000000000000000, #129 ) ;
#39 = APPLICATION_CONTEXT ( 'configuration controlled 3d designs of mechanical parts and assemblies' ) ;
#40 = EDGE_LOOP ( 'NONE', ( #79 ) ) ;
#41 = CC_DESIGN_PERSON_AND_ORGANIZATION_ASSIGNMENT ( #113, #243, ( #156 ) ) ;
#42 = DIRECTION ( 'NONE',  ( -3.491481338843133355E-15, 1.224646799147353207E-16, -1.000000000000000000 ) ) ;
#43 = ORIENTED_EDGE ( 'NONE', *, *, #142, .F. ) ;
#44 = DIRECTION ( 'NONE',  ( 0.0000000000000000000, 1.000000000000000000, 0.0000000000000000000 ) ) ;
#45 = CC_DESIGN_DATE_AND_TIME_ASSIGNMENT ( #205, #225, ( #156 ) ) ;
#46 = CARTESIAN_POINT ( 'NONE',  ( 1.326762908760390675E-13, -4.653657836759942730E-15, 38.00000000000000711 ) ) ;
#47 = CARTESIAN_POINT ( 'NONE',  ( 7.681258945454890226E-15, 0.0000000000000000000, 2.199999999999998845 ) ) ;
#48 = DIRECTION ( 'NONE',  ( 1.000000000000000000, 0.0000000000000000000, -3.491481338843133355E-15 ) ) ;
#49 = DIRECTION ( 'NONE',  ( 3.491481338843133355E-15, -0.0000000000000000000, 1.000000000000000000 ) ) ;
#50 = PERSON_AND_ORGANIZATION ( #194, #86 ) ;
#51 = VERTEX_POINT ( 'NONE', #16 ) ;
#52 = CIRCLE ( 'NONE', #147, 0.5681483474218600449 ) ;
#53 = APPROVAL_ROLE ( '' ) ;
#54 = PERSON_AND_ORGANIZATION ( #194, #86 ) ;
#55 = APPLICATION_CONTEXT ( 'configuration controlled 3d designs of mechanical parts and assemblies' ) ;
#56 = AXIS2_PLACEMENT_3D ( 'NONE', #123, #42, #25 ) ;
#57 = LOCAL_TIME ( 8, 41, 54.00000000000000000, #73 ) ;
#58 = DIRECTION ( 'NONE',  ( 1.000000000000000000, 0.0000000000000000000, -3.491481338843133355E-15 ) ) ;
#59 = CIRCLE ( 'NONE', #175, 1.999999999999999556 ) ;
#60 = ADVANCED_BREP_SHAPE_REPRESENTATION ( '334890', ( #120, #28, #24 ), #164 ) ;
#61 = ADVANCED_FACE ( 'NONE', ( #20, #212 ), #64, .T. ) ;
#62 = ORIENTED_EDGE ( 'NONE', *, *, #112, .T. ) ;
#63 = FACE_OUTER_BOUND ( 'NONE', #121, .T. ) ;
#64 = CYLINDRICAL_SURFACE ( 'NONE', #56, 2.000000000000000000 ) ;
#65 = AXIS2_PLACEMENT_3D ( 'NONE', #69, #7, #165 ) ;
#66 = DIRECTION ( 'NONE',  ( 3.491481338843133355E-15, -0.0000000000000000000, 1.000000000000000000 ) ) ;
#67 = APPROVAL ( #185, 'UNSPECIFIED' ) ;
#68 = DIRECTION ( 'NONE',  ( 3.491481338843133355E-15, -0.0000000000000000000, 1.000000000000000000 ) ) ;
#69 = CARTESIAN_POINT ( 'NONE',  ( 7.681258945454888648E-15, 0.0000000000000000000, 2.199999999999998401 ) ) ;
#70 = CC_DESIGN_APPROVAL ( #88, ( #5 ) ) ;
#71 = CARTESIAN_POINT ( 'NONE',  ( 0.5000000000000073275, 0.0000000000000000000, 2.199999999999996625 ) ) ;
#72 = DIRECTION ( 'NONE',  ( 3.491481338843133355E-15, -0.0000000000000000000, 1.000000000000000000 ) ) ;
#73 = COORDINATED_UNIVERSAL_TIME_OFFSET ( 1, 0, .AHEAD. ) ;
#74 = CC_DESIGN_SECURITY_CLASSIFICATION ( #156, ( #5 ) ) ;
#75 = PERSON_AND_ORGANIZATION ( #194, #86 ) ;
#76 = PERSON_AND_ORGANIZATION_ROLE ( 'design_supplier' ) ;
#77 =( NAMED_UNIT ( * ) SI_UNIT ( $, .STERADIAN. ) SOLID_ANGLE_UNIT ( ) );
#78 = APPROVAL_DATE_TIME ( #169, #88 ) ;
#79 = ORIENTED_EDGE ( 'NONE', *, *, #151, .F. ) ;
#80 = EDGE_LOOP ( 'NONE', ( #195 ) ) ;
#81 = DIRECTION ( 'NONE',  ( -4.275831445896958607E-31, -1.000000000000000000, -1.224646799147353207E-16 ) ) ;
#82 = FACE_OUTER_BOUND ( 'NONE', #226, .T. ) ;
#83 = CALENDAR_DATE ( 2021, 15, 11 ) ;
#84 = DIRECTION ( 'NONE',  ( 3.491481338843133355E-15, -1.224646799147353207E-16, 1.000000000000000000 ) ) ;
#85 = CIRCLE ( 'NONE', #65, 0.4999999999999995559 ) ;
#86 = ORGANIZATION ( 'UNSPECIFIED', 'UNSPECIFIED', '' ) ;
#87 = DIRECTION ( 'NONE',  ( -3.491481338843133355E-15, 1.224646799147353207E-16, -1.000000000000000000 ) ) ;
#88 = APPROVAL ( #94, 'UNSPECIFIED' ) ;
#89 = COORDINATED_UNIVERSAL_TIME_OFFSET ( 1, 0, .AHEAD. ) ;
#90 = CIRCLE ( 'NONE', #211, 1.600000000000001865 ) ;
#91 = COORDINATED_UNIVERSAL_TIME_OFFSET ( 1, 0, .AHEAD. ) ;
#92 = PERSON_AND_ORGANIZATION ( #194, #86 ) ;
#93 = VERTEX_POINT ( 'NONE', #146 ) ;
#94 = APPROVAL_STATUS ( 'not_yet_approved' ) ;
#95 = EDGE_LOOP ( 'NONE', ( #43 ) ) ;
#96 = EDGE_LOOP ( 'NONE', ( #4 ) ) ;
#97 = ADVANCED_FACE ( 'NONE', ( #176, #6 ), #223, .T. ) ;
#98 = EDGE_LOOP ( 'NONE', ( #193 ) ) ;
#99 = CLOSED_SHELL ( 'NONE', ( #173, #17, #158 ) ) ;
#100 = AXIS2_PLACEMENT_3D ( 'NONE', #202, #143, #81 ) ;
#101 = DESIGN_CONTEXT ( 'detailed design', #55, 'design' ) ;
#102 = CC_DESIGN_PERSON_AND_ORGANIZATION_ASSIGNMENT ( #92, #168, ( #5 ) ) ;
#103 = VERTEX_POINT ( 'NONE', #71 ) ;
#104 = CARTESIAN_POINT ( 'NONE',  ( -4.275831445896957731E-31, 1.499759782661857608E-32, -1.224646799147353207E-16 ) ) ;
#105 = CONICAL_SURFACE ( 'NONE', #119, 4.000000000000000000, 0.2617993877991428020 ) ;
#106 = DIRECTION ( 'NONE',  ( 3.491481338843133355E-15, -0.0000000000000000000, 1.000000000000000000 ) ) ;
#107 = EDGE_CURVE ( 'NONE', #182, #182, #85, .T. ) ;
#108 = DIRECTION ( 'NONE',  ( 3.491481338843133355E-15, -0.0000000000000000000, 1.000000000000000000 ) ) ;
#109 = CARTESIAN_POINT ( 'NONE',  ( 2.814616204789412657E-14, 0.0000000000000000000, 8.061381206528249521 ) ) ;
#110 = AXIS2_PLACEMENT_3D ( 'NONE', #125, #84, #181 ) ;
#111 = PERSON_AND_ORGANIZATION ( #194, #86 ) ;
#112 = EDGE_CURVE ( 'NONE', #214, #214, #217, .T. ) ;
#113 = PERSON_AND_ORGANIZATION ( #194, #86 ) ;
#114 = CARTESIAN_POINT ( 'NONE',  ( 1.312796983405018394E-13, 1.999999999999994893, 37.60000000000000853 ) ) ;
#115 = APPROVAL_STATUS ( 'not_yet_approved' ) ;
#116 = AXIS2_PLACEMENT_3D ( 'NONE', #104, #30, #31 ) ;
#117 = APPROVAL_DATE_TIME ( #159, #67 ) ;
#118 = ORIENTED_EDGE ( 'NONE', *, *, #112, .F. ) ;
#119 = AXIS2_PLACEMENT_3D ( 'NONE', #219, #49, #178 ) ;
#120 = MANIFOLD_SOLID_BREP ( 'Corps-Déplacer/Copier1[1]', #170 ) ;
#121 = EDGE_LOOP ( 'NONE', ( #62 ) ) ;
#122 = EDGE_CURVE ( 'NONE', #103, #103, #21, .T. ) ;
#123 = CARTESIAN_POINT ( 'NONE',  ( 0.0000000000000000000, 0.0000000000000000000, 0.0000000000000000000 ) ) ;
#124 = VERTEX_POINT ( 'NONE', #144 ) ;
#125 = CARTESIAN_POINT ( 'NONE',  ( 7.681258945454893382E-15, -4.770489558936218524E-16, 2.199999999999999734 ) ) ;
#126 = CC_DESIGN_APPROVAL ( #242, ( #156 ) ) ;
#127 = CARTESIAN_POINT ( 'NONE',  ( 1.312796983405018394E-13, -4.604671964794048513E-15, 37.60000000000000853 ) ) ;
#128 = CARTESIAN_POINT ( 'NONE',  ( 9.488582677680145029E-15, 0.0000000000000000000, 2.717638090205027446 ) ) ;
#129 = COORDINATED_UNIVERSAL_TIME_OFFSET ( 1, 0, .AHEAD. ) ;
#130 = PRODUCT_DEFINITION ( 'UNKNOWN', '', #5, #101 ) ;
#131 = CALENDAR_DATE ( 2021, 15, 11 ) ;
#132 = LOCAL_TIME ( 8, 41, 54.00000000000000000, #89 ) ;
#133 = APPLICATION_PROTOCOL_DEFINITION ( 'international standard', 'config_control_design', 1994, #39 ) ;
#134 = CALENDAR_DATE ( 2021, 15, 11 ) ;
#135 = EDGE_LOOP ( 'NONE', ( #230 ) ) ;
#136 = ORIENTED_EDGE ( 'NONE', *, *, #151, .T. ) ;
#137 = EDGE_LOOP ( 'NONE', ( #118 ) ) ;
#138 = DIRECTION ( 'NONE',  ( 3.491481338843133355E-15, -0.0000000000000000000, 1.000000000000000000 ) ) ;
#139 = EDGE_LOOP ( 'NONE', ( #153 ) ) ;
#140 = FACE_OUTER_BOUND ( 'NONE', #174, .T. ) ;
#141 = PLANE ( 'NONE',  #116 ) ;
#142 = EDGE_CURVE ( 'NONE', #124, #124, #90, .T. ) ;
#143 = DIRECTION ( 'NONE',  ( 3.491481338843133355E-15, -1.224646799147353207E-16, 1.000000000000000000 ) ) ;
#144 = CARTESIAN_POINT ( 'NONE',  ( 1.326762908760390675E-13, 1.599999999999997202, 38.00000000000000711 ) ) ;
#145 = DIRECTION ( 'NONE',  ( -3.491481338843133355E-15, 1.224646799147353207E-16, -1.000000000000000000 ) ) ;
#146 = CARTESIAN_POINT ( 'NONE',  ( 0.5681483474218695928, 0.0000000000000000000, 2.717638090205025225 ) ) ;
#147 = AXIS2_PLACEMENT_3D ( 'NONE', #128, #66, #232 ) ;
#148 = AXIS2_PLACEMENT_3D ( 'NONE', #47, #108, #48 ) ;
#149 = CC_DESIGN_APPROVAL ( #67, ( #130 ) ) ;
#150 = EDGE_LOOP ( 'NONE', ( #154 ) ) ;
#151 = EDGE_CURVE ( 'NONE', #18, #18, #59, .T. ) ;
#152 = CC_DESIGN_DATE_AND_TIME_ASSIGNMENT ( #189, #19, ( #130 ) ) ;
#153 = ORIENTED_EDGE ( 'NONE', *, *, #142, .T. ) ;
#154 = ORIENTED_EDGE ( 'NONE', *, *, #107, .T. ) ;
#155 = FACE_OUTER_BOUND ( 'NONE', #210, .T. ) ;
#156 = SECURITY_CLASSIFICATION ( '', '', #221 ) ;
#157 = PLANE ( 'NONE',  #229 ) ;
#158 = ADVANCED_FACE ( 'NONE', ( #200 ), #141, .T. ) ;
#159 = DATE_AND_TIME ( #83, #57 ) ;
#160 = DIRECTION ( 'NONE',  ( -3.491481338843133355E-15, 1.224646799147353207E-16, -1.000000000000000000 ) ) ;
#161 = DIRECTION ( 'NONE',  ( 0.0000000000000000000, 0.0000000000000000000, 1.000000000000000000 ) ) ;
#162 = CARTESIAN_POINT ( 'NONE',  ( 0.5000000000000073275, 0.0000000000000000000, 2.199999999999996625 ) ) ;
#163 = AXIS2_PLACEMENT_3D ( 'NONE', #227, #138, #58 ) ;
#164 =( GEOMETRIC_REPRESENTATION_CONTEXT ( 3 ) GLOBAL_UNCERTAINTY_ASSIGNED_CONTEXT ( ( #2 ) ) GLOBAL_UNIT_ASSIGNED_CONTEXT ( ( #187, #208, #77 ) ) REPRESENTATION_CONTEXT ( 'NONE', 'WORKASPACE' ) );
#165 = DIRECTION ( 'NONE',  ( 1.000000000000000000, 0.0000000000000000000, -3.469446951953617344E-15 ) ) ;
#166 = EDGE_CURVE ( 'NONE', #93, #93, #52, .T. ) ;
#167 = APPROVAL_DATE_TIME ( #34, #242 ) ;
#168 = PERSON_AND_ORGANIZATION_ROLE ( 'creator' ) ;
#169 = DATE_AND_TIME ( #134, #38 ) ;
#170 = CLOSED_SHELL ( 'NONE', ( #61, #97, #188, #228, #171, #183 ) ) ;
#171 = ADVANCED_FACE ( 'NONE', ( #82, #184 ), #105, .T. ) ;
#172 = FACE_OUTER_BOUND ( 'NONE', #98, .T. ) ;
#173 = ADVANCED_FACE ( 'NONE', ( #14 ), #13, .T. ) ;
#174 = EDGE_LOOP ( 'NONE', ( #192 ) ) ;
#175 = AXIS2_PLACEMENT_3D ( 'NONE', #127, #145, #44 ) ;
#176 = FACE_BOUND ( 'NONE', #139, .T. ) ;
#177 = DIRECTION ( 'NONE',  ( 0.0000000000000000000, 1.000000000000000000, 0.0000000000000000000 ) ) ;
#178 = DIRECTION ( 'NONE',  ( 1.000000000000000000, 0.0000000000000000000, -3.469446951953614189E-15 ) ) ;
#179 = CC_DESIGN_PERSON_AND_ORGANIZATION_ASSIGNMENT ( #190, #37, ( #130 ) ) ;
#180 = TOROIDAL_SURFACE ( 'NONE', #148, 2.500000000000000000, 2.000000000000000000 ) ;
#181 = DIRECTION ( 'NONE',  ( -4.275831445896958607E-31, -1.000000000000000000, -1.224646799147353207E-16 ) ) ;
#182 = VERTEX_POINT ( 'NONE', #162 ) ;
#183 = ADVANCED_FACE ( 'NONE', ( #140 ), #199, .F. ) ;
#184 = FACE_BOUND ( 'NONE', #96, .T. ) ;
#185 = APPROVAL_STATUS ( 'not_yet_approved' ) ;
#186 = COORDINATED_UNIVERSAL_TIME_OFFSET ( 1, 0, .AHEAD. ) ;
#187 =( LENGTH_UNIT ( ) NAMED_UNIT ( * ) SI_UNIT ( .MILLI., .METRE. ) );
#188 = ADVANCED_FACE ( 'NONE', ( #29 ), #157, .F. ) ;
#189 = DATE_AND_TIME ( #131, #196 ) ;
#190 = PERSON_AND_ORGANIZATION ( #194, #86 ) ;
#191 = APPROVAL_PERSON_ORGANIZATION ( #209, #242, #53 ) ;
#192 = ORIENTED_EDGE ( 'NONE', *, *, #107, .F. ) ;
#193 = ORIENTED_EDGE ( 'NONE', *, *, #122, .F. ) ;
#194 = PERSON ( 'UNSPECIFIED', 'UNSPECIFIED', 'UNSPECIFIED', ('UNSPECIFIED'), ('UNSPECIFIED'), ('UNSPECIFIED') ) ;
#195 = ORIENTED_EDGE ( 'NONE', *, *, #122, .T. ) ;
#196 = LOCAL_TIME ( 8, 41, 54.00000000000000000, #186 ) ;
#197 = CARTESIAN_POINT ( 'NONE',  ( 1.326762908760390675E-13, -8.377713426430119900E-31, 38.00000000000000711 ) ) ;
#198 = DIRECTION ( 'NONE',  ( 1.000000000000000000, 0.0000000000000000000, -3.491481338843133355E-15 ) ) ;
#199 = PLANE ( 'NONE',  #100 ) ;
#200 = FACE_OUTER_BOUND ( 'NONE', #137, .T. ) ;
#201 = DIRECTION ( 'NONE',  ( 1.000000000000000000, 0.0000000000000000000, 0.0000000000000000000 ) ) ;
#202 = CARTESIAN_POINT ( 'NONE',  ( 7.681258945454893382E-15, -4.770489558936218524E-16, 2.199999999999999734 ) ) ;
#203 = AXIS2_PLACEMENT_3D ( 'NONE', #236, #160, #177 ) ;
#204 = PERSON_AND_ORGANIZATION_ROLE ( 'design_owner' ) ;
#205 = DATE_AND_TIME ( #15, #132 ) ;
#206 = EDGE_CURVE ( 'NONE', #51, #51, #8, .T. ) ;
#207 = AXIS2_PLACEMENT_3D ( 'NONE', #27, #72, #198 ) ;
#208 =( NAMED_UNIT ( * ) PLANE_ANGLE_UNIT ( ) SI_UNIT ( $, .RADIAN. ) );
#209 = PERSON_AND_ORGANIZATION ( #194, #86 ) ;
#210 = EDGE_LOOP ( 'NONE', ( #231 ) ) ;
#211 = AXIS2_PLACEMENT_3D ( 'NONE', #46, #87, #238 ) ;
#212 = FACE_OUTER_BOUND ( 'NONE', #135, .T. ) ;
#213 = CYLINDRICAL_SURFACE ( 'NONE', #163, 0.4999999999999997780 ) ;
#214 = VERTEX_POINT ( 'NONE', #237 ) ;
#215 = DIRECTION ( 'NONE',  ( 1.000000000000000000, 0.0000000000000000000, -3.469446951953617344E-15 ) ) ;
#216 = CC_DESIGN_PERSON_AND_ORGANIZATION_ASSIGNMENT ( #50, #204, ( #235 ) ) ;
#217 = CIRCLE ( 'NONE', #207, 0.5000000000000000000 ) ;
#218 = FACE_OUTER_BOUND ( 'NONE', #150, .T. ) ;
#219 = CARTESIAN_POINT ( 'NONE',  ( 5.420693354837717586E-14, 0.0000000000000000000, 15.52548282166620019 ) ) ;
#220 = APPROVAL_PERSON_ORGANIZATION ( #111, #67, #10 ) ;
#221 = SECURITY_CLASSIFICATION_LEVEL ( 'unclassified' ) ;
#222 = PRODUCT_DEFINITION_SHAPE ( 'NONE', 'NONE',  #130 ) ;
#223 = CONICAL_SURFACE ( 'NONE', #203, 1.999999999999999556, 0.7853981633974485010 ) ;
#224 = LOCAL_TIME ( 8, 41, 54.00000000000000000, #91 ) ;
#225 = DATE_TIME_ROLE ( 'classification_date' ) ;
#226 = EDGE_LOOP ( 'NONE', ( #22 ) ) ;
#227 = CARTESIAN_POINT ( 'NONE',  ( 0.0000000000000000000, 0.0000000000000000000, 0.0000000000000000000 ) ) ;
#228 = ADVANCED_FACE ( 'NONE', ( #218, #155 ), #180, .F. ) ;
#229 = AXIS2_PLACEMENT_3D ( 'NONE', #197, #9, #26 ) ;
#230 = ORIENTED_EDGE ( 'NONE', *, *, #206, .T. ) ;
#231 = ORIENTED_EDGE ( 'NONE', *, *, #166, .F. ) ;
#232 = DIRECTION ( 'NONE',  ( 1.000000000000000000, 0.0000000000000000000, -3.816616478444019910E-15 ) ) ;
#233 = APPROVAL_PERSON_ORGANIZATION ( #54, #88, #1 ) ;
#234 = CARTESIAN_POINT ( 'NONE',  ( 7.681258945454888648E-15, 0.0000000000000000000, 2.199999999999998401 ) ) ;
#235 = PRODUCT ( '334890', '334890', '', ( #239 ) ) ;
#236 = CARTESIAN_POINT ( 'NONE',  ( 1.312796983405018394E-13, -4.604671964794048513E-15, 37.60000000000000853 ) ) ;
#237 = CARTESIAN_POINT ( 'NONE',  ( 0.5000000000000000000, 0.0000000000000000000, -2.235599389080508059E-15 ) ) ;
#238 = DIRECTION ( 'NONE',  ( 0.0000000000000000000, 1.000000000000000000, 0.0000000000000000000 ) ) ;
#239 = MECHANICAL_CONTEXT ( 'NONE', #39, 'mechanical' ) ;
#240 = CC_DESIGN_PERSON_AND_ORGANIZATION_ASSIGNMENT ( #75, #76, ( #5 ) ) ;
#241 = SHAPE_DEFINITION_REPRESENTATION ( #222, #60 ) ;
#242 = APPROVAL ( #115, 'UNSPECIFIED' ) ;
#243 = PERSON_AND_ORGANIZATION_ROLE ( 'classification_officer' ) ;
ENDSEC;
END-ISO-10303-21;
