ISO-10303-21;
HEADER;
FILE_DESCRIPTION (( 'STEP AP203' ),
    '1' );
FILE_NAME ('334889.step',
    '2021-11-15T07:41:53',
    ( '' ),
    ( '' ),
    'SwSTEP 2.0',
    'SolidWorks 2019',
    '' );
FILE_SCHEMA (( 'CONFIG_CONTROL_DESIGN' ));
ENDSEC;

DATA;
#1 = FACE_OUTER_BOUND ( 'NONE', #133, .T. ) ;
#2 = PRODUCT_RELATED_PRODUCT_CATEGORY ( 'detail', '', ( #85 ) ) ;
#3 = CARTESIAN_POINT ( 'NONE',  ( 0.0000000000000000000, 0.0000000000000000000, 0.0000000000000000000 ) ) ;
#4 = CIRCLE ( 'NONE', #141, 0.5181483474218598895 ) ;
#5 = CONICAL_SURFACE ( 'NONE', #52, 1.999999999999999556, 0.7853981633974485010 ) ;
#6 = FACE_OUTER_BOUND ( 'NONE', #91, .T. ) ;
#7 = ADVANCED_BREP_SHAPE_REPRESENTATION ( '334889', ( #177, #175, #33 ), #161 ) ;
#8 = AXIS2_PLACEMENT_3D ( 'NONE', #170, #59, #18 ) ;
#9 = APPROVAL_DATE_TIME ( #158, #181 ) ;
#10 = VERTEX_POINT ( 'NONE', #46 ) ;
#11 = CARTESIAN_POINT ( 'NONE',  ( 2.000000000000028422, 0.0000000000000000000, 8.047983746906691493 ) ) ;
#12 = LOCAL_TIME ( 8, 41, 53.00000000000000000, #69 ) ;
#13 = DATE_TIME_ROLE ( 'classification_date' ) ;
#14 = ADVANCED_FACE ( 'NONE', ( #169 ), #192, .T. ) ;
#15 = EDGE_LOOP ( 'NONE', ( #147 ) ) ;
#16 = PERSON_AND_ORGANIZATION_ROLE ( 'design_supplier' ) ;
#17 = EDGE_LOOP ( 'NONE', ( #165 ) ) ;
#18 = DIRECTION ( 'NONE',  ( 1.000000000000000000, 0.0000000000000000000, -3.469446951953614189E-15 ) ) ;
#19 = CARTESIAN_POINT ( 'NONE',  ( 8.790286409911519936E-15, 0.0000000000000000000, 2.517638090205027712 ) ) ;
#20 = PLANE ( 'NONE',  #88 ) ;
#21 = DIRECTION ( 'NONE',  ( 1.000000000000000000, 0.0000000000000000000, -3.469446951953614189E-15 ) ) ;
#22 = SECURITY_CLASSIFICATION_LEVEL ( 'unclassified' ) ;
#23 = CARTESIAN_POINT ( 'NONE',  ( 1.326762908760390675E-13, -8.377713426430119900E-31, 38.00000000000000711 ) ) ;
#24 = EDGE_CURVE ( 'NONE', #10, #10, #4, .T. ) ;
#25 = APPROVAL_PERSON_ORGANIZATION ( #70, #181, #103 ) ;
#26 = DIRECTION ( 'NONE',  ( 3.491481338843133355E-15, -0.0000000000000000000, 1.000000000000000000 ) ) ;
#27 = VERTEX_POINT ( 'NONE', #238 ) ;
#28 = DATE_AND_TIME ( #131, #149 ) ;
#29 = DATE_AND_TIME ( #145, #60 ) ;
#30 = DIRECTION ( 'NONE',  ( 0.0000000000000000000, 0.0000000000000000000, 1.000000000000000000 ) ) ;
#31 = CARTESIAN_POINT ( 'NONE',  ( 0.4499999999999999001, 0.0000000000000000000, -2.061025322138350997E-15 ) ) ;
#32 = CIRCLE ( 'NONE', #65, 0.4499999999999999001 ) ;
#33 = AXIS2_PLACEMENT_3D ( 'NONE', #162, #30, #214 ) ;
#34 = CALENDAR_DATE ( 2021, 15, 11 ) ;
#35 = ORIENTED_EDGE ( 'NONE', *, *, #76, .T. ) ;
#36 = DIRECTION ( 'NONE',  ( -4.275831445896958607E-31, -1.000000000000000000, -1.224646799147353207E-16 ) ) ;
#37 = COORDINATED_UNIVERSAL_TIME_OFFSET ( 1, 0, .AHEAD. ) ;
#38 = ADVANCED_FACE ( 'NONE', ( #1 ), #118, .T. ) ;
#39 = CARTESIAN_POINT ( 'NONE',  ( -4.275831445896957731E-31, 1.499759782661857608E-32, -1.224646799147353207E-16 ) ) ;
#40 = DIRECTION ( 'NONE',  ( 1.000000000000000000, 0.0000000000000000000, -3.347928222888744221E-15 ) ) ;
#41 = PERSON_AND_ORGANIZATION_ROLE ( 'creator' ) ;
#42 = DIRECTION ( 'NONE',  ( 3.491481338843133355E-15, -0.0000000000000000000, 1.000000000000000000 ) ) ;
#43 = ADVANCED_FACE ( 'NONE', ( #206 ), #20, .F. ) ;
#44 = CYLINDRICAL_SURFACE ( 'NONE', #191, 2.000000000000000000 ) ;
#45 = DIRECTION ( 'NONE',  ( -3.491481338843133355E-15, 1.224646799147353207E-16, -1.000000000000000000 ) ) ;
#46 = CARTESIAN_POINT ( 'NONE',  ( 0.5181483474218686602, 0.0000000000000000000, 2.517638090205026380 ) ) ;
#47 = CC_DESIGN_PERSON_AND_ORGANIZATION_ASSIGNMENT ( #119, #16, ( #73 ) ) ;
#48 = VERTEX_POINT ( 'NONE', #11 ) ;
#49 = PERSON_AND_ORGANIZATION ( #61, #105 ) ;
#50 = APPROVAL ( #201, 'UNSPECIFIED' ) ;
#51 = APPROVAL_STATUS ( 'not_yet_approved' ) ;
#52 = AXIS2_PLACEMENT_3D ( 'NONE', #108, #180, #202 ) ;
#53 = EDGE_LOOP ( 'NONE', ( #226 ) ) ;
#54 = UNCERTAINTY_MEASURE_WITH_UNIT (LENGTH_MEASURE( 1.000000000000000082E-05 ), #236, 'distance_accuracy_value', 'NONE');
#55 = CC_DESIGN_SECURITY_CLASSIFICATION ( #218, ( #73 ) ) ;
#56 = ORIENTED_EDGE ( 'NONE', *, *, #24, .T. ) ;
#57 = DIRECTION ( 'NONE',  ( -3.491481338843133355E-15, 1.224646799147353207E-16, -1.000000000000000000 ) ) ;
#58 = EDGE_LOOP ( 'NONE', ( #148 ) ) ;
#59 = DIRECTION ( 'NONE',  ( 3.491481338843133355E-15, -0.0000000000000000000, 1.000000000000000000 ) ) ;
#60 = LOCAL_TIME ( 8, 41, 53.00000000000000000, #174 ) ;
#61 = PERSON ( 'UNSPECIFIED', 'UNSPECIFIED', 'UNSPECIFIED', ('UNSPECIFIED'), ('UNSPECIFIED'), ('UNSPECIFIED') ) ;
#62 = DIRECTION ( 'NONE',  ( 1.000000000000000000, 0.0000000000000000000, -3.854941057726242633E-15 ) ) ;
#63 = DIRECTION ( 'NONE',  ( 4.275831445896958607E-31, 1.000000000000000000, 1.224646799147353207E-16 ) ) ;
#64 = CYLINDRICAL_SURFACE ( 'NONE', #160, 0.4499999999999996780 ) ;
#65 = AXIS2_PLACEMENT_3D ( 'NONE', #98, #155, #116 ) ;
#66 = VERTEX_POINT ( 'NONE', #31 ) ;
#67 = CC_DESIGN_PERSON_AND_ORGANIZATION_ASSIGNMENT ( #125, #107, ( #85 ) ) ;
#68 = CALENDAR_DATE ( 2021, 15, 11 ) ;
#69 = COORDINATED_UNIVERSAL_TIME_OFFSET ( 1, 0, .AHEAD. ) ;
#70 = PERSON_AND_ORGANIZATION ( #61, #105 ) ;
#71 = CARTESIAN_POINT ( 'NONE',  ( 0.4500000000000064504, 0.0000000000000000000, 1.999999999999997113 ) ) ;
#72 = ORIENTED_EDGE ( 'NONE', *, *, #76, .F. ) ;
#73 = PRODUCT_DEFINITION_FORMATION_WITH_SPECIFIED_SOURCE ( 'ANY', '', #85, .NOT_KNOWN. ) ;
#74 = APPROVAL_ROLE ( '' ) ;
#75 = ORIENTED_EDGE ( 'NONE', *, *, #186, .F. ) ;
#76 = EDGE_CURVE ( 'NONE', #83, #83, #228, .T. ) ;
#77 = DIRECTION ( 'NONE',  ( 0.0000000000000000000, 1.000000000000000000, 0.0000000000000000000 ) ) ;
#78 = CARTESIAN_POINT ( 'NONE',  ( 6.982962677686266711E-15, -4.336808689942017243E-16, 2.000000000000000000 ) ) ;
#79 = FACE_OUTER_BOUND ( 'NONE', #17, .T. ) ;
#80 = COORDINATED_UNIVERSAL_TIME_OFFSET ( 1, 0, .AHEAD. ) ;
#81 = TOROIDAL_SURFACE ( 'NONE', #187, 2.450000000000000178, 2.000000000000000444 ) ;
#82 = CARTESIAN_POINT ( 'NONE',  ( 1.326762908760390675E-13, 1.599999999999997202, 38.00000000000000711 ) ) ;
#83 = VERTEX_POINT ( 'NONE', #82 ) ;
#84 = APPLICATION_PROTOCOL_DEFINITION ( 'international standard', 'config_control_design', 1994, #229 ) ;
#85 = PRODUCT ( '334889', '334889', '', ( #235 ) ) ;
#86 = DATE_AND_TIME ( #34, #240 ) ;
#87 = CC_DESIGN_DATE_AND_TIME_ASSIGNMENT ( #212, #213, ( #111 ) ) ;
#88 = AXIS2_PLACEMENT_3D ( 'NONE', #132, #97, #36 ) ;
#89 = ORIENTED_EDGE ( 'NONE', *, *, #24, .F. ) ;
#90 = CC_DESIGN_PERSON_AND_ORGANIZATION_ASSIGNMENT ( #49, #146, ( #111 ) ) ;
#91 = EDGE_LOOP ( 'NONE', ( #189 ) ) ;
#92 = EDGE_LOOP ( 'NONE', ( #56 ) ) ;
#93 = FACE_OUTER_BOUND ( 'NONE', #58, .T. ) ;
#94 = CC_DESIGN_APPROVAL ( #50, ( #73 ) ) ;
#95 = DIRECTION ( 'NONE',  ( 3.491481338843133355E-15, -0.0000000000000000000, 1.000000000000000000 ) ) ;
#96 = DIRECTION ( 'NONE',  ( 1.000000000000000000, 0.0000000000000000000, -3.854941057726242633E-15 ) ) ;
#97 = DIRECTION ( 'NONE',  ( 3.491481338843133355E-15, -1.224646799147353207E-16, 1.000000000000000000 ) ) ;
#98 = CARTESIAN_POINT ( 'NONE',  ( -1.710332578358783092E-30, 0.0000000000000000000, -4.898587196589412829E-16 ) ) ;
#99 = CC_DESIGN_PERSON_AND_ORGANIZATION_ASSIGNMENT ( #223, #41, ( #73 ) ) ;
#100 = FACE_OUTER_BOUND ( 'NONE', #203, .T. ) ;
#101 = CC_DESIGN_APPROVAL ( #181, ( #111 ) ) ;
#102 = APPROVAL_ROLE ( '' ) ;
#103 = APPROVAL_ROLE ( '' ) ;
#104 = CIRCLE ( 'NONE', #204, 0.4499999999999994560 ) ;
#105 = ORGANIZATION ( 'UNSPECIFIED', 'UNSPECIFIED', '' ) ;
#106 = APPROVAL_DATE_TIME ( #29, #50 ) ;
#107 = PERSON_AND_ORGANIZATION_ROLE ( 'design_owner' ) ;
#108 = CARTESIAN_POINT ( 'NONE',  ( 1.312796983405018394E-13, -4.604671964794048513E-15, 37.60000000000000853 ) ) ;
#109 = ADVANCED_FACE ( 'NONE', ( #150, #79 ), #44, .T. ) ;
#110 = CLOSED_SHELL ( 'NONE', ( #14, #153, #38 ) ) ;
#111 = PRODUCT_DEFINITION ( 'UNKNOWN', '', #73, #138 ) ;
#112 = EDGE_LOOP ( 'NONE', ( #164 ) ) ;
#113 = CARTESIAN_POINT ( 'NONE',  ( 1.326762908760390675E-13, -4.653657836759942730E-15, 38.00000000000000711 ) ) ;
#114 = EDGE_LOOP ( 'NONE', ( #221 ) ) ;
#115 = CONICAL_SURFACE ( 'NONE', #8, 4.000000000000000000, 0.2617993877991428575 ) ;
#116 = DIRECTION ( 'NONE',  ( 1.000000000000000000, 0.0000000000000000000, -3.491481338843132961E-15 ) ) ;
#117 = PERSON_AND_ORGANIZATION_ROLE ( 'classification_officer' ) ;
#118 = PLANE ( 'NONE',  #121 ) ;
#119 = PERSON_AND_ORGANIZATION ( #61, #105 ) ;
#120 = DIRECTION ( 'NONE',  ( 3.491481338843133355E-15, -0.0000000000000000000, 1.000000000000000000 ) ) ;
#121 = AXIS2_PLACEMENT_3D ( 'NONE', #39, #57, #194 ) ;
#122 = APPROVAL ( #51, 'UNSPECIFIED' ) ;
#123 = FACE_BOUND ( 'NONE', #92, .T. ) ;
#124 = CIRCLE ( 'NONE', #127, 0.4499999999999994560 ) ;
#125 = PERSON_AND_ORGANIZATION ( #61, #105 ) ;
#126 = APPROVAL_DATE_TIME ( #86, #122 ) ;
#127 = AXIS2_PLACEMENT_3D ( 'NONE', #198, #26, #62 ) ;
#128 = ORIENTED_EDGE ( 'NONE', *, *, #168, .F. ) ;
#129 = AXIS2_PLACEMENT_3D ( 'NONE', #78, #167, #243 ) ;
#130 = EDGE_LOOP ( 'NONE', ( #35 ) ) ;
#131 = CALENDAR_DATE ( 2021, 15, 11 ) ;
#132 = CARTESIAN_POINT ( 'NONE',  ( 6.982962677686266711E-15, -4.336808689942017243E-16, 2.000000000000000000 ) ) ;
#133 = EDGE_LOOP ( 'NONE', ( #75 ) ) ;
#134 = FACE_OUTER_BOUND ( 'NONE', #242, .T. ) ;
#135 = EDGE_LOOP ( 'NONE', ( #72 ) ) ;
#136 = FACE_BOUND ( 'NONE', #130, .T. ) ;
#137 = CARTESIAN_POINT ( 'NONE',  ( 0.0000000000000000000, 0.0000000000000000000, 0.0000000000000000000 ) ) ;
#138 = DESIGN_CONTEXT ( 'detailed design', #229, 'design' ) ;
#139 = FACE_OUTER_BOUND ( 'NONE', #224, .T. ) ;
#140 = DIRECTION ( 'NONE',  ( 0.0000000000000000000, 1.000000000000000000, 0.0000000000000000000 ) ) ;
#141 = AXIS2_PLACEMENT_3D ( 'NONE', #19, #95, #40 ) ;
#142 = CALENDAR_DATE ( 2021, 15, 11 ) ;
#143 = EDGE_CURVE ( 'NONE', #182, #182, #124, .T. ) ;
#144 = APPROVAL_PERSON_ORGANIZATION ( #216, #50, #102 ) ;
#145 = CALENDAR_DATE ( 2021, 15, 11 ) ;
#146 = PERSON_AND_ORGANIZATION_ROLE ( 'creator' ) ;
#147 = ORIENTED_EDGE ( 'NONE', *, *, #219, .T. ) ;
#148 = ORIENTED_EDGE ( 'NONE', *, *, #163, .F. ) ;
#149 = LOCAL_TIME ( 8, 41, 53.00000000000000000, #37 ) ;
#150 = FACE_OUTER_BOUND ( 'NONE', #114, .T. ) ;
#151 = DIRECTION ( 'NONE',  ( -3.491481338843133355E-15, 1.224646799147353207E-16, -1.000000000000000000 ) ) ;
#152 = PERSON_AND_ORGANIZATION ( #61, #105 ) ;
#153 = ADVANCED_FACE ( 'NONE', ( #134, #207 ), #64, .T. ) ;
#154 = ADVANCED_FACE ( 'NONE', ( #6, #100 ), #81, .F. ) ;
#155 = DIRECTION ( 'NONE',  ( 3.491481338843133355E-15, -0.0000000000000000000, 1.000000000000000000 ) ) ;
#156 = DIRECTION ( 'NONE',  ( 1.000000000000000000, 0.0000000000000000000, -3.491481338843133355E-15 ) ) ;
#157 = AXIS2_PLACEMENT_3D ( 'NONE', #210, #172, #21 ) ;
#158 = DATE_AND_TIME ( #68, #205 ) ;
#159 = VERTEX_POINT ( 'NONE', #179 ) ;
#160 = AXIS2_PLACEMENT_3D ( 'NONE', #137, #42, #195 ) ;
#161 =( GEOMETRIC_REPRESENTATION_CONTEXT ( 3 ) GLOBAL_UNCERTAINTY_ASSIGNED_CONTEXT ( ( #54 ) ) GLOBAL_UNIT_ASSIGNED_CONTEXT ( ( #236, #176, #200 ) ) REPRESENTATION_CONTEXT ( 'NONE', 'WORKASPACE' ) );
#162 = CARTESIAN_POINT ( 'NONE',  ( 0.0000000000000000000, 0.0000000000000000000, 0.0000000000000000000 ) ) ;
#163 = EDGE_CURVE ( 'NONE', #159, #159, #197, .T. ) ;
#164 = ORIENTED_EDGE ( 'NONE', *, *, #219, .F. ) ;
#165 = ORIENTED_EDGE ( 'NONE', *, *, #168, .T. ) ;
#166 = AXIS2_PLACEMENT_3D ( 'NONE', #232, #227, #140 ) ;
#167 = DIRECTION ( 'NONE',  ( 3.491481338843133355E-15, -1.224646799147353207E-16, 1.000000000000000000 ) ) ;
#168 = EDGE_CURVE ( 'NONE', #48, #48, #217, .T. ) ;
#169 = FACE_OUTER_BOUND ( 'NONE', #15, .T. ) ;
#170 = CARTESIAN_POINT ( 'NONE',  ( 5.416015656812062557E-14, 0.0000000000000000000, 15.51208536204464927 ) ) ;
#171 = CC_DESIGN_PERSON_AND_ORGANIZATION_ASSIGNMENT ( #152, #117, ( #218 ) ) ;
#172 = DIRECTION ( 'NONE',  ( 3.491481338843133355E-15, -0.0000000000000000000, 1.000000000000000000 ) ) ;
#173 = CARTESIAN_POINT ( 'NONE',  ( 6.982962677686263555E-15, 0.0000000000000000000, 1.999999999999999112 ) ) ;
#174 = COORDINATED_UNIVERSAL_TIME_OFFSET ( 1, 0, .AHEAD. ) ;
#175 = MANIFOLD_SOLID_BREP ( 'Corps-Déplacer/Copier1[2]', #110 ) ;
#176 =( NAMED_UNIT ( * ) PLANE_ANGLE_UNIT ( ) SI_UNIT ( $, .RADIAN. ) );
#177 = MANIFOLD_SOLID_BREP ( 'Corps-Déplacer/Copier1[1]', #208 ) ;
#178 = CC_DESIGN_DATE_AND_TIME_ASSIGNMENT ( #28, #13, ( #218 ) ) ;
#179 = CARTESIAN_POINT ( 'NONE',  ( 1.312796983405018394E-13, 1.999999999999994893, 37.60000000000000853 ) ) ;
#180 = DIRECTION ( 'NONE',  ( -3.491481338843133355E-15, 1.224646799147353207E-16, -1.000000000000000000 ) ) ;
#181 = APPROVAL ( #199, 'UNSPECIFIED' ) ;
#182 = VERTEX_POINT ( 'NONE', #71 ) ;
#183 = AXIS2_PLACEMENT_3D ( 'NONE', #113, #190, #77 ) ;
#184 = PERSON_AND_ORGANIZATION ( #61, #105 ) ;
#185 = ORIENTED_EDGE ( 'NONE', *, *, #186, .T. ) ;
#186 = EDGE_CURVE ( 'NONE', #66, #66, #32, .T. ) ;
#187 = AXIS2_PLACEMENT_3D ( 'NONE', #173, #120, #156 ) ;
#188 = SHAPE_DEFINITION_REPRESENTATION ( #211, #7 ) ;
#189 = ORIENTED_EDGE ( 'NONE', *, *, #143, .T. ) ;
#190 = DIRECTION ( 'NONE',  ( -3.491481338843133355E-15, 1.224646799147353207E-16, -1.000000000000000000 ) ) ;
#191 = AXIS2_PLACEMENT_3D ( 'NONE', #3, #151, #209 ) ;
#192 = PLANE ( 'NONE',  #129 ) ;
#193 = PLANE ( 'NONE',  #233 ) ;
#194 = DIRECTION ( 'NONE',  ( 4.275831445896958607E-31, 1.000000000000000000, 1.224646799147353207E-16 ) ) ;
#195 = DIRECTION ( 'NONE',  ( 1.000000000000000000, 0.0000000000000000000, -3.491481338843133355E-15 ) ) ;
#196 = DIRECTION ( 'NONE',  ( 3.491481338843133355E-15, -0.0000000000000000000, 1.000000000000000000 ) ) ;
#197 = CIRCLE ( 'NONE', #166, 1.999999999999999556 ) ;
#198 = CARTESIAN_POINT ( 'NONE',  ( 6.982962677686261977E-15, 0.0000000000000000000, 1.999999999999998668 ) ) ;
#199 = APPROVAL_STATUS ( 'not_yet_approved' ) ;
#200 =( NAMED_UNIT ( * ) SI_UNIT ( $, .STERADIAN. ) SOLID_ANGLE_UNIT ( ) );
#201 = APPROVAL_STATUS ( 'not_yet_approved' ) ;
#202 = DIRECTION ( 'NONE',  ( 0.0000000000000000000, 1.000000000000000000, 0.0000000000000000000 ) ) ;
#203 = EDGE_LOOP ( 'NONE', ( #89 ) ) ;
#204 = AXIS2_PLACEMENT_3D ( 'NONE', #231, #196, #96 ) ;
#205 = LOCAL_TIME ( 8, 41, 53.00000000000000000, #80 ) ;
#206 = FACE_OUTER_BOUND ( 'NONE', #53, .T. ) ;
#207 = FACE_OUTER_BOUND ( 'NONE', #112, .T. ) ;
#208 = CLOSED_SHELL ( 'NONE', ( #109, #241, #230, #154, #239, #43 ) ) ;
#209 = DIRECTION ( 'NONE',  ( 4.275831445896958607E-31, 1.000000000000000000, 1.224646799147353207E-16 ) ) ;
#210 = CARTESIAN_POINT ( 'NONE',  ( 2.809938506763757313E-14, 0.0000000000000000000, 8.047983746906698599 ) ) ;
#211 = PRODUCT_DEFINITION_SHAPE ( 'NONE', 'NONE',  #111 ) ;
#212 = DATE_AND_TIME ( #142, #12 ) ;
#213 = DATE_TIME_ROLE ( 'creation_date' ) ;
#214 = DIRECTION ( 'NONE',  ( 1.000000000000000000, 0.0000000000000000000, 0.0000000000000000000 ) ) ;
#215 = COORDINATED_UNIVERSAL_TIME_OFFSET ( 1, 0, .AHEAD. ) ;
#216 = PERSON_AND_ORGANIZATION ( #61, #105 ) ;
#217 = CIRCLE ( 'NONE', #157, 2.000000000000000000 ) ;
#218 = SECURITY_CLASSIFICATION ( '', '', #22 ) ;
#219 = EDGE_CURVE ( 'NONE', #27, #27, #104, .T. ) ;
#220 = CC_DESIGN_APPROVAL ( #122, ( #218 ) ) ;
#221 = ORIENTED_EDGE ( 'NONE', *, *, #163, .T. ) ;
#222 = APPLICATION_CONTEXT ( 'configuration controlled 3d designs of mechanical parts and assemblies' ) ;
#223 = PERSON_AND_ORGANIZATION ( #61, #105 ) ;
#224 = EDGE_LOOP ( 'NONE', ( #128 ) ) ;
#225 = FACE_OUTER_BOUND ( 'NONE', #135, .T. ) ;
#226 = ORIENTED_EDGE ( 'NONE', *, *, #143, .F. ) ;
#227 = DIRECTION ( 'NONE',  ( -3.491481338843133355E-15, 1.224646799147353207E-16, -1.000000000000000000 ) ) ;
#228 = CIRCLE ( 'NONE', #183, 1.600000000000001865 ) ;
#229 = APPLICATION_CONTEXT ( 'configuration controlled 3d designs of mechanical parts and assemblies' ) ;
#230 = ADVANCED_FACE ( 'NONE', ( #225 ), #193, .F. ) ;
#231 = CARTESIAN_POINT ( 'NONE',  ( 6.982962677686261977E-15, 0.0000000000000000000, 1.999999999999998668 ) ) ;
#232 = CARTESIAN_POINT ( 'NONE',  ( 1.312796983405018394E-13, -4.604671964794048513E-15, 37.60000000000000853 ) ) ;
#233 = AXIS2_PLACEMENT_3D ( 'NONE', #23, #45, #63 ) ;
#234 = APPROVAL_PERSON_ORGANIZATION ( #184, #122, #74 ) ;
#235 = MECHANICAL_CONTEXT ( 'NONE', #222, 'mechanical' ) ;
#236 =( LENGTH_UNIT ( ) NAMED_UNIT ( * ) SI_UNIT ( .MILLI., .METRE. ) );
#237 = APPLICATION_PROTOCOL_DEFINITION ( 'international standard', 'config_control_design', 1994, #222 ) ;
#238 = CARTESIAN_POINT ( 'NONE',  ( 0.4500000000000064504, 0.0000000000000000000, 1.999999999999997113 ) ) ;
#239 = ADVANCED_FACE ( 'NONE', ( #139, #123 ), #115, .T. ) ;
#240 = LOCAL_TIME ( 8, 41, 53.00000000000000000, #215 ) ;
#241 = ADVANCED_FACE ( 'NONE', ( #136, #93 ), #5, .T. ) ;
#242 = EDGE_LOOP ( 'NONE', ( #185 ) ) ;
#243 = DIRECTION ( 'NONE',  ( -4.275831445896958607E-31, -1.000000000000000000, -1.224646799147353207E-16 ) ) ;
ENDSEC;
END-ISO-10303-21;
