ISO-10303-21;
HEADER;
FILE_DESCRIPTION (( 'STEP AP203' ),
    '1' );
FILE_NAME ('334888.step',
    '2021-11-15T07:41:53',
    ( '' ),
    ( '' ),
    'SwSTEP 2.0',
    'SolidWorks 2019',
    '' );
FILE_SCHEMA (( 'CONFIG_CONTROL_DESIGN' ));
ENDSEC;

DATA;
#1 = EDGE_LOOP ( 'NONE', ( #39 ) ) ;
#2 = PRODUCT_RELATED_PRODUCT_CATEGORY ( 'detail', '', ( #188 ) ) ;
#3 = DIRECTION ( 'NONE',  ( 4.275831445896958607E-31, 1.000000000000000000, 1.224646799147353207E-16 ) ) ;
#4 = AXIS2_PLACEMENT_3D ( 'NONE', #67, #45, #141 ) ;
#5 = FACE_OUTER_BOUND ( 'NONE', #1, .T. ) ;
#6 = APPROVAL_STATUS ( 'not_yet_approved' ) ;
#7 = DIRECTION ( 'NONE',  ( 3.491481338843133355E-15, -0.0000000000000000000, 1.000000000000000000 ) ) ;
#8 = PERSON_AND_ORGANIZATION_ROLE ( 'creator' ) ;
#9 = TOROIDAL_SURFACE ( 'NONE', #46, 2.399999999999997691, 1.999999999999999112 ) ;
#10 = VERTEX_POINT ( 'NONE', #13 ) ;
#11 = DATE_AND_TIME ( #207, #53 ) ;
#12 = UNCERTAINTY_MEASURE_WITH_UNIT (LENGTH_MEASURE( 1.000000000000000082E-05 ), #234, 'distance_accuracy_value', 'NONE');
#13 = CARTESIAN_POINT ( 'NONE',  ( 1.312796983405018394E-13, 1.999999999999994893, 37.60000000000000853 ) ) ;
#14 = LOCAL_TIME ( 8, 41, 53.00000000000000000, #32 ) ;
#15 = CALENDAR_DATE ( 2021, 15, 11 ) ;
#16 = EDGE_CURVE ( 'NONE', #34, #34, #155, .T. ) ;
#17 = ADVANCED_FACE ( 'NONE', ( #120 ), #23, .F. ) ;
#18 = ORIENTED_EDGE ( 'NONE', *, *, #171, .F. ) ;
#19 = ORIENTED_EDGE ( 'NONE', *, *, #171, .T. ) ;
#20 = DIRECTION ( 'NONE',  ( 3.491481338843133355E-15, -1.224646799147353207E-16, 1.000000000000000000 ) ) ;
#21 = CLOSED_SHELL ( 'NONE', ( #91, #163, #17, #55, #94, #131 ) ) ;
#22 = EDGE_LOOP ( 'NONE', ( #19 ) ) ;
#23 = PLANE ( 'NONE',  #192 ) ;
#24 = CARTESIAN_POINT ( 'NONE',  ( 6.284666409917638462E-15, 0.0000000000000000000, 1.799999999999999600 ) ) ;
#25 = CARTESIAN_POINT ( 'NONE',  ( 6.284666409917637673E-15, 1.499759782661857060E-32, 1.799999999999999378 ) ) ;
#26 = DATE_TIME_ROLE ( 'creation_date' ) ;
#27 = ORGANIZATION ( 'UNSPECIFIED', 'UNSPECIFIED', '' ) ;
#28 = FACE_OUTER_BOUND ( 'NONE', #117, .T. ) ;
#29 = PERSON_AND_ORGANIZATION ( #89, #27 ) ;
#30 = DIRECTION ( 'NONE',  ( 0.0000000000000000000, 1.000000000000000000, 0.0000000000000000000 ) ) ;
#31 = DIRECTION ( 'NONE',  ( 1.000000000000000000, 0.0000000000000000000, 0.0000000000000000000 ) ) ;
#32 = COORDINATED_UNIVERSAL_TIME_OFFSET ( 1, 0, .AHEAD. ) ;
#33 = CIRCLE ( 'NONE', #63, 1.999999999999999556 ) ;
#34 = VERTEX_POINT ( 'NONE', #73 ) ;
#35 = CALENDAR_DATE ( 2021, 15, 11 ) ;
#36 = CARTESIAN_POINT ( 'NONE',  ( 0.4000000000000056288, 0.0000000000000000000, 1.800000000000001599 ) ) ;
#37 = APPLICATION_PROTOCOL_DEFINITION ( 'international standard', 'config_control_design', 1994, #93 ) ;
#38 = ORIENTED_EDGE ( 'NONE', *, *, #190, .F. ) ;
#39 = ORIENTED_EDGE ( 'NONE', *, *, #101, .F. ) ;
#40 = SECURITY_CLASSIFICATION ( '', '', #161 ) ;
#41 = EDGE_LOOP ( 'NONE', ( #97 ) ) ;
#42 = DIRECTION ( 'NONE',  ( -3.491481338843133355E-15, 1.224646799147353207E-16, -1.000000000000000000 ) ) ;
#43 = COORDINATED_UNIVERSAL_TIME_OFFSET ( 1, 0, .AHEAD. ) ;
#44 = ADVANCED_FACE ( 'NONE', ( #230 ), #153, .T. ) ;
#45 = DIRECTION ( 'NONE',  ( 3.491481338843133355E-15, -0.0000000000000000000, 1.000000000000000000 ) ) ;
#46 = AXIS2_PLACEMENT_3D ( 'NONE', #24, #136, #65 ) ;
#47 = DIRECTION ( 'NONE',  ( 3.491481338843133355E-15, -0.0000000000000000000, 1.000000000000000000 ) ) ;
#48 = COORDINATED_UNIVERSAL_TIME_OFFSET ( 1, 0, .AHEAD. ) ;
#49 = ADVANCED_FACE ( 'NONE', ( #224 ), #121, .T. ) ;
#50 = VERTEX_POINT ( 'NONE', #179 ) ;
#51 = APPROVAL_ROLE ( '' ) ;
#52 = CIRCLE ( 'NONE', #159, 0.4681483474218584573 ) ;
#53 = LOCAL_TIME ( 8, 41, 53.00000000000000000, #128 ) ;
#54 = PERSON_AND_ORGANIZATION ( #89, #27 ) ;
#55 = ADVANCED_FACE ( 'NONE', ( #197, #28 ), #9, .F. ) ;
#56 = CARTESIAN_POINT ( 'NONE',  ( 1.312796983405018394E-13, -4.604671964794048513E-15, 37.60000000000000853 ) ) ;
#57 = AXIS2_PLACEMENT_3D ( 'NONE', #193, #78, #138 ) ;
#58 = AXIS2_PLACEMENT_3D ( 'NONE', #173, #62, #162 ) ;
#59 = EDGE_LOOP ( 'NONE', ( #135 ) ) ;
#60 = ORIENTED_EDGE ( 'NONE', *, *, #233, .T. ) ;
#61 = EDGE_LOOP ( 'NONE', ( #243 ) ) ;
#62 = DIRECTION ( 'NONE',  ( 3.491481338843133355E-15, -0.0000000000000000000, 1.000000000000000000 ) ) ;
#63 = AXIS2_PLACEMENT_3D ( 'NONE', #220, #90, #164 ) ;
#64 = EDGE_CURVE ( 'NONE', #219, #219, #52, .T. ) ;
#65 = DIRECTION ( 'NONE',  ( 1.000000000000000000, 0.0000000000000000000, -3.491481338843133750E-15 ) ) ;
#66 = PERSON_AND_ORGANIZATION_ROLE ( 'design_supplier' ) ;
#67 = CARTESIAN_POINT ( 'NONE',  ( 5.411337958786410054E-14, 0.0000000000000000000, 15.49868790242310546 ) ) ;
#68 = DIRECTION ( 'NONE',  ( -3.491481338843133355E-15, 1.224646799147353207E-16, -1.000000000000000000 ) ) ;
#69 = LOCAL_TIME ( 8, 41, 53.00000000000000000, #48 ) ;
#70 =( NAMED_UNIT ( * ) SI_UNIT ( $, .STERADIAN. ) SOLID_ANGLE_UNIT ( ) );
#71 = DATE_AND_TIME ( #15, #88 ) ;
#72 = CC_DESIGN_PERSON_AND_ORGANIZATION_ASSIGNMENT ( #29, #66, ( #211 ) ) ;
#73 = CARTESIAN_POINT ( 'NONE',  ( 2.000000000000028422, 0.0000000000000000000, 8.034586287285147677 ) ) ;
#74 = DIRECTION ( 'NONE',  ( 0.0000000000000000000, 0.0000000000000000000, 1.000000000000000000 ) ) ;
#75 =( GEOMETRIC_REPRESENTATION_CONTEXT ( 3 ) GLOBAL_UNCERTAINTY_ASSIGNED_CONTEXT ( ( #12 ) ) GLOBAL_UNIT_ASSIGNED_CONTEXT ( ( #234, #235, #70 ) ) REPRESENTATION_CONTEXT ( 'NONE', 'WORKASPACE' ) );
#76 = CARTESIAN_POINT ( 'NONE',  ( 0.3999999999999993006, 0.0000000000000000000, -1.886451255196192357E-15 ) ) ;
#77 = EDGE_LOOP ( 'NONE', ( #95 ) ) ;
#78 = DIRECTION ( 'NONE',  ( 3.491481338843133355E-15, -0.0000000000000000000, 1.000000000000000000 ) ) ;
#79 = CARTESIAN_POINT ( 'NONE',  ( 0.0000000000000000000, 0.0000000000000000000, 0.0000000000000000000 ) ) ;
#80 = CIRCLE ( 'NONE', #148, 0.3999999999999993006 ) ;
#81 = PERSON_AND_ORGANIZATION_ROLE ( 'classification_officer' ) ;
#82 = CYLINDRICAL_SURFACE ( 'NONE', #227, 2.000000000000000000 ) ;
#83 = DIRECTION ( 'NONE',  ( 1.000000000000000000, 0.0000000000000000000, -3.252606517456518824E-15 ) ) ;
#84 = CONICAL_SURFACE ( 'NONE', #4, 4.000000000000000000, 0.2617993877991428020 ) ;
#85 = APPROVAL_PERSON_ORGANIZATION ( #182, #108, #51 ) ;
#86 = CARTESIAN_POINT ( 'NONE',  ( 0.4681483474218665619, 0.0000000000000000000, 2.317638090205026202 ) ) ;
#87 = APPLICATION_PROTOCOL_DEFINITION ( 'international standard', 'config_control_design', 1994, #111 ) ;
#88 = LOCAL_TIME ( 8, 41, 53.00000000000000000, #186 ) ;
#89 = PERSON ( 'UNSPECIFIED', 'UNSPECIFIED', 'UNSPECIFIED', ('UNSPECIFIED'), ('UNSPECIFIED'), ('UNSPECIFIED') ) ;
#90 = DIRECTION ( 'NONE',  ( -3.491481338843133355E-15, 1.224646799147353207E-16, -1.000000000000000000 ) ) ;
#91 = ADVANCED_FACE ( 'NONE', ( #140, #194 ), #82, .T. ) ;
#92 = MANIFOLD_SOLID_BREP ( 'Corps-Déplacer/Copier1[2]', #210 ) ;
#93 = APPLICATION_CONTEXT ( 'configuration controlled 3d designs of mechanical parts and assemblies' ) ;
#94 = ADVANCED_FACE ( 'NONE', ( #142, #158 ), #84, .T. ) ;
#95 = ORIENTED_EDGE ( 'NONE', *, *, #190, .T. ) ;
#96 = DIRECTION ( 'NONE',  ( 4.275831445896958607E-31, 1.000000000000000000, 1.224646799147353207E-16 ) ) ;
#97 = ORIENTED_EDGE ( 'NONE', *, *, #101, .T. ) ;
#98 = CYLINDRICAL_SURFACE ( 'NONE', #58, 0.3999999999999993006 ) ;
#99 = CARTESIAN_POINT ( 'NONE',  ( 1.326762908760390675E-13, -8.377713426430119900E-31, 38.00000000000000711 ) ) ;
#100 = CARTESIAN_POINT ( 'NONE',  ( 8.091990142142893265E-15, 0.0000000000000000000, 2.317638090205027979 ) ) ;
#101 = EDGE_CURVE ( 'NONE', #147, #147, #113, .T. ) ;
#102 = DIRECTION ( 'NONE',  ( 3.491481338843133355E-15, -1.224646799147353207E-16, 1.000000000000000000 ) ) ;
#103 = CALENDAR_DATE ( 2021, 15, 11 ) ;
#104 = DESIGN_CONTEXT ( 'detailed design', #111, 'design' ) ;
#105 = DIRECTION ( 'NONE',  ( -3.491481338843133355E-15, 1.224646799147353207E-16, -1.000000000000000000 ) ) ;
#106 = FACE_BOUND ( 'NONE', #77, .T. ) ;
#107 = PERSON_AND_ORGANIZATION ( #89, #27 ) ;
#108 = APPROVAL ( #209, 'UNSPECIFIED' ) ;
#109 = ADVANCED_BREP_SHAPE_REPRESENTATION ( '334888', ( #183, #92, #237 ), #75 ) ;
#110 = PERSON_AND_ORGANIZATION ( #89, #27 ) ;
#111 = APPLICATION_CONTEXT ( 'configuration controlled 3d designs of mechanical parts and assemblies' ) ;
#112 = APPROVAL_ROLE ( '' ) ;
#113 = CIRCLE ( 'NONE', #221, 0.3999999999999993006 ) ;
#114 = LOCAL_TIME ( 8, 41, 53.00000000000000000, #43 ) ;
#115 = AXIS2_PLACEMENT_3D ( 'NONE', #160, #105, #145 ) ;
#116 = EDGE_LOOP ( 'NONE', ( #60 ) ) ;
#117 = EDGE_LOOP ( 'NONE', ( #191 ) ) ;
#118 = PRODUCT_DEFINITION_SHAPE ( 'NONE', 'NONE',  #166 ) ;
#119 = FACE_OUTER_BOUND ( 'NONE', #172, .T. ) ;
#120 = FACE_OUTER_BOUND ( 'NONE', #223, .T. ) ;
#121 = PLANE ( 'NONE',  #241 ) ;
#122 = PERSON_AND_ORGANIZATION ( #89, #27 ) ;
#123 = CC_DESIGN_PERSON_AND_ORGANIZATION_ASSIGNMENT ( #213, #81, ( #40 ) ) ;
#124 = FACE_OUTER_BOUND ( 'NONE', #22, .T. ) ;
#125 = DATE_TIME_ROLE ( 'classification_date' ) ;
#126 = CALENDAR_DATE ( 2021, 15, 11 ) ;
#127 = CARTESIAN_POINT ( 'NONE',  ( 0.0000000000000000000, 0.0000000000000000000, 0.0000000000000000000 ) ) ;
#128 = COORDINATED_UNIVERSAL_TIME_OFFSET ( 1, 0, .AHEAD. ) ;
#129 = DIRECTION ( 'NONE',  ( 3.491481338843133355E-15, -0.0000000000000000000, 1.000000000000000000 ) ) ;
#130 = APPROVAL_STATUS ( 'not_yet_approved' ) ;
#131 = ADVANCED_FACE ( 'NONE', ( #5 ), #226, .F. ) ;
#132 = AXIS2_PLACEMENT_3D ( 'NONE', #204, #20, #212 ) ;
#133 = CC_DESIGN_SECURITY_CLASSIFICATION ( #40, ( #211 ) ) ;
#134 = DIRECTION ( 'NONE',  ( -3.491481338843133355E-15, 1.224646799147353207E-16, -1.000000000000000000 ) ) ;
#135 = ORIENTED_EDGE ( 'NONE', *, *, #185, .T. ) ;
#136 = DIRECTION ( 'NONE',  ( 3.491481338843133355E-15, -0.0000000000000000000, 1.000000000000000000 ) ) ;
#137 = CIRCLE ( 'NONE', #115, 1.600000000000001865 ) ;
#138 = DIRECTION ( 'NONE',  ( 1.000000000000000000, 0.0000000000000000000, -3.469446951953614189E-15 ) ) ;
#139 = DIRECTION ( 'NONE',  ( 4.275831445896958607E-31, 1.000000000000000000, 1.224646799147353207E-16 ) ) ;
#140 = FACE_OUTER_BOUND ( 'NONE', #116, .T. ) ;
#141 = DIRECTION ( 'NONE',  ( 1.000000000000000000, 0.0000000000000000000, -3.469446951953614189E-15 ) ) ;
#142 = FACE_OUTER_BOUND ( 'NONE', #61, .T. ) ;
#143 = APPROVAL_DATE_TIME ( #71, #228 ) ;
#144 = APPROVAL_DATE_TIME ( #216, #108 ) ;
#145 = DIRECTION ( 'NONE',  ( 0.0000000000000000000, 1.000000000000000000, 0.0000000000000000000 ) ) ;
#146 = APPROVAL ( #6, 'UNSPECIFIED' ) ;
#147 = VERTEX_POINT ( 'NONE', #36 ) ;
#148 = AXIS2_PLACEMENT_3D ( 'NONE', #215, #129, #83 ) ;
#149 = MECHANICAL_CONTEXT ( 'NONE', #93, 'mechanical' ) ;
#150 = CC_DESIGN_PERSON_AND_ORGANIZATION_ASSIGNMENT ( #122, #8, ( #211 ) ) ;
#151 = CONICAL_SURFACE ( 'NONE', #242, 1.999999999999999556, 0.7853981633974485010 ) ;
#152 = EDGE_LOOP ( 'NONE', ( #189 ) ) ;
#153 = PLANE ( 'NONE',  #167 ) ;
#154 = ADVANCED_FACE ( 'NONE', ( #124, #119 ), #98, .T. ) ;
#155 = CIRCLE ( 'NONE', #57, 2.000000000000000000 ) ;
#156 = CC_DESIGN_APPROVAL ( #146, ( #40 ) ) ;
#157 = APPROVAL_ROLE ( '' ) ;
#158 = FACE_BOUND ( 'NONE', #152, .T. ) ;
#159 = AXIS2_PLACEMENT_3D ( 'NONE', #100, #47, #175 ) ;
#160 = CARTESIAN_POINT ( 'NONE',  ( 1.326762908760390675E-13, -4.653657836759942730E-15, 38.00000000000000711 ) ) ;
#161 = SECURITY_CLASSIFICATION_LEVEL ( 'unclassified' ) ;
#162 = DIRECTION ( 'NONE',  ( 1.000000000000000000, 0.0000000000000000000, -3.491481338843133355E-15 ) ) ;
#163 = ADVANCED_FACE ( 'NONE', ( #106, #181 ), #151, .T. ) ;
#164 = DIRECTION ( 'NONE',  ( 0.0000000000000000000, 1.000000000000000000, 0.0000000000000000000 ) ) ;
#165 = APPROVAL_PERSON_ORGANIZATION ( #54, #228, #112 ) ;
#166 = PRODUCT_DEFINITION ( 'UNKNOWN', '', #211, #104 ) ;
#167 = AXIS2_PLACEMENT_3D ( 'NONE', #196, #42, #3 ) ;
#168 = CC_DESIGN_APPROVAL ( #108, ( #211 ) ) ;
#169 = EDGE_LOOP ( 'NONE', ( #18 ) ) ;
#170 = ORIENTED_EDGE ( 'NONE', *, *, #233, .F. ) ;
#171 = EDGE_CURVE ( 'NONE', #202, #202, #180, .T. ) ;
#172 = EDGE_LOOP ( 'NONE', ( #206 ) ) ;
#173 = CARTESIAN_POINT ( 'NONE',  ( 0.0000000000000000000, 0.0000000000000000000, 0.0000000000000000000 ) ) ;
#174 = CC_DESIGN_DATE_AND_TIME_ASSIGNMENT ( #232, #26, ( #166 ) ) ;
#175 = DIRECTION ( 'NONE',  ( 1.000000000000000000, 0.0000000000000000000, -3.705499518539602366E-15 ) ) ;
#176 = SHAPE_DEFINITION_REPRESENTATION ( #118, #109 ) ;
#177 = DIRECTION ( 'NONE',  ( 1.000000000000000000, 0.0000000000000000000, -3.252606517456518824E-15 ) ) ;
#178 = PERSON_AND_ORGANIZATION ( #89, #27 ) ;
#179 = CARTESIAN_POINT ( 'NONE',  ( 1.326762908760390675E-13, 1.599999999999997202, 38.00000000000000711 ) ) ;
#180 = CIRCLE ( 'NONE', #205, 0.3999999999999993006 ) ;
#181 = FACE_OUTER_BOUND ( 'NONE', #225, .T. ) ;
#182 = PERSON_AND_ORGANIZATION ( #89, #27 ) ;
#183 = MANIFOLD_SOLID_BREP ( 'Corps-Déplacer/Copier1[1]', #21 ) ;
#184 = PERSON_AND_ORGANIZATION_ROLE ( 'design_owner' ) ;
#185 = EDGE_CURVE ( 'NONE', #217, #217, #80, .T. ) ;
#186 = COORDINATED_UNIVERSAL_TIME_OFFSET ( 1, 0, .AHEAD. ) ;
#187 = CC_DESIGN_PERSON_AND_ORGANIZATION_ASSIGNMENT ( #107, #199, ( #166 ) ) ;
#188 = PRODUCT ( '334888', '334888', '', ( #149 ) ) ;
#189 = ORIENTED_EDGE ( 'NONE', *, *, #64, .T. ) ;
#190 = EDGE_CURVE ( 'NONE', #50, #50, #137, .T. ) ;
#191 = ORIENTED_EDGE ( 'NONE', *, *, #64, .F. ) ;
#192 = AXIS2_PLACEMENT_3D ( 'NONE', #99, #134, #139 ) ;
#193 = CARTESIAN_POINT ( 'NONE',  ( 2.805260808738104809E-14, 0.0000000000000000000, 8.034586287285153006 ) ) ;
#194 = FACE_OUTER_BOUND ( 'NONE', #203, .T. ) ;
#195 = ORIENTED_EDGE ( 'NONE', *, *, #16, .T. ) ;
#196 = CARTESIAN_POINT ( 'NONE',  ( -4.275831445896957731E-31, 1.499759782661857608E-32, -1.224646799147353207E-16 ) ) ;
#197 = FACE_OUTER_BOUND ( 'NONE', #41, .T. ) ;
#198 = DIRECTION ( 'NONE',  ( 3.491481338843133355E-15, -0.0000000000000000000, 1.000000000000000000 ) ) ;
#199 = PERSON_AND_ORGANIZATION_ROLE ( 'creator' ) ;
#200 = DIRECTION ( 'NONE',  ( -3.491481338843133355E-15, 1.224646799147353207E-16, -1.000000000000000000 ) ) ;
#201 = DATE_AND_TIME ( #126, #114 ) ;
#202 = VERTEX_POINT ( 'NONE', #76 ) ;
#203 = EDGE_LOOP ( 'NONE', ( #195 ) ) ;
#204 = CARTESIAN_POINT ( 'NONE',  ( 6.284666409917637673E-15, 1.499759782661857060E-32, 1.799999999999999378 ) ) ;
#205 = AXIS2_PLACEMENT_3D ( 'NONE', #240, #7, #236 ) ;
#206 = ORIENTED_EDGE ( 'NONE', *, *, #185, .F. ) ;
#207 = CALENDAR_DATE ( 2021, 15, 11 ) ;
#208 = CARTESIAN_POINT ( 'NONE',  ( 6.284666409917650295E-15, 0.0000000000000000000, 1.800000000000002931 ) ) ;
#209 = APPROVAL_STATUS ( 'not_yet_approved' ) ;
#210 = CLOSED_SHELL ( 'NONE', ( #49, #154, #44 ) ) ;
#211 = PRODUCT_DEFINITION_FORMATION_WITH_SPECIFIED_SOURCE ( 'ANY', '', #188, .NOT_KNOWN. ) ;
#212 = DIRECTION ( 'NONE',  ( -4.275831445896958607E-31, -1.000000000000000000, -1.224646799147353207E-16 ) ) ;
#213 = PERSON_AND_ORGANIZATION ( #89, #27 ) ;
#214 = CC_DESIGN_DATE_AND_TIME_ASSIGNMENT ( #11, #125, ( #40 ) ) ;
#215 = CARTESIAN_POINT ( 'NONE',  ( 6.284666409917650295E-15, 0.0000000000000000000, 1.800000000000002931 ) ) ;
#216 = DATE_AND_TIME ( #103, #69 ) ;
#217 = VERTEX_POINT ( 'NONE', #238 ) ;
#218 = CC_DESIGN_PERSON_AND_ORGANIZATION_ASSIGNMENT ( #110, #184, ( #188 ) ) ;
#219 = VERTEX_POINT ( 'NONE', #86 ) ;
#220 = CARTESIAN_POINT ( 'NONE',  ( 1.312796983405018394E-13, -4.604671964794048513E-15, 37.60000000000000853 ) ) ;
#221 = AXIS2_PLACEMENT_3D ( 'NONE', #208, #198, #177 ) ;
#222 = CC_DESIGN_APPROVAL ( #228, ( #166 ) ) ;
#223 = EDGE_LOOP ( 'NONE', ( #38 ) ) ;
#224 = FACE_OUTER_BOUND ( 'NONE', #59, .T. ) ;
#225 = EDGE_LOOP ( 'NONE', ( #170 ) ) ;
#226 = PLANE ( 'NONE',  #132 ) ;
#227 = AXIS2_PLACEMENT_3D ( 'NONE', #79, #68, #96 ) ;
#228 = APPROVAL ( #130, 'UNSPECIFIED' ) ;
#229 = APPROVAL_DATE_TIME ( #201, #146 ) ;
#230 = FACE_OUTER_BOUND ( 'NONE', #169, .T. ) ;
#231 = DIRECTION ( 'NONE',  ( -4.275831445896958607E-31, -1.000000000000000000, -1.224646799147353207E-16 ) ) ;
#232 = DATE_AND_TIME ( #35, #14 ) ;
#233 = EDGE_CURVE ( 'NONE', #10, #10, #33, .T. ) ;
#234 =( LENGTH_UNIT ( ) NAMED_UNIT ( * ) SI_UNIT ( .MILLI., .METRE. ) );
#235 =( NAMED_UNIT ( * ) PLANE_ANGLE_UNIT ( ) SI_UNIT ( $, .RADIAN. ) );
#236 = DIRECTION ( 'NONE',  ( 1.000000000000000000, 0.0000000000000000000, -3.491481338843133355E-15 ) ) ;
#237 = AXIS2_PLACEMENT_3D ( 'NONE', #127, #74, #31 ) ;
#238 = CARTESIAN_POINT ( 'NONE',  ( 0.4000000000000056288, 0.0000000000000000000, 1.800000000000001599 ) ) ;
#239 = APPROVAL_PERSON_ORGANIZATION ( #178, #146, #157 ) ;
#240 = CARTESIAN_POINT ( 'NONE',  ( -1.710332578358783443E-30, 0.0000000000000000000, -4.898587196589413815E-16 ) ) ;
#241 = AXIS2_PLACEMENT_3D ( 'NONE', #25, #102, #231 ) ;
#242 = AXIS2_PLACEMENT_3D ( 'NONE', #56, #200, #30 ) ;
#243 = ORIENTED_EDGE ( 'NONE', *, *, #16, .F. ) ;
ENDSEC;
END-ISO-10303-21;
